Log in

One click and you are in

Login with Facebook Login with Google

Why sign up and log in

Guitar Tabs Explorer
Nadin Amizah chords for —star ukulele

Guitar chords

  • Difficulty: Intermediate
Tuning: G C E A (G C E A)


Verse 1:

A|------------3-3----------3-3----|
E|-----0-0-----------0-0----------|
C|---0-----0-------0-----0--------|
G|--------------------------------|

A|--------0-0--------0-0----------|
E|---1-1--------1-1---------------|
C|-2----2-----2----2--------------|
G|--------------------------------|

A|------------2-2----------2-2---------3--3--|
E|-----1-1-----------1-1---------0-0------0--|
C|---2-----2-------2-----2-----0-----0--0-0--|
G|-------------------------------------------|
(repeat all 2x)


Chorus:

A|-----2--3--2--0-----2--0-----2--3-|
E|-1---1--0--3--0--1--1--0--1--1--0-|
C|-----2--0--4--0-----2--0--2--2--0-|
G|-2------0--0--0--2-----1--2-----0-|


Intro pre-verse:

A|------------3-3----------3-3----|
E|-----0-0-----------0-0----------|
C|---0-----0-------0-----0--------|
G|--------------------------------|

A|--------0-0--------0-0----------|
E|---1-1--------1-1---------------|
C|-2----2-----2----2--------------|
G|--------------------------------|

A|------------2-2----------2-2---------3--3--|
E|-----1-1-----------1-1---------0-0------0--|
C|---2-----2-------2-----2-----0-----0--0-0--|
G|-------------------------------------------|

Verse 2:

A|------------3-3----------3-3----|
E|-----0-0-----------0-0----------|
C|---0-----0-------0-----0--------|
G|--------------------------------|

A|--------0-0--------0-0----------2--0-----2----------3--3-----|
E|---1-1--------1-1---------------1--0--1--1----0-0------0-----|
C|-2----2-----2----2--------------2--0--2--2---0-----0-0-0-----|
G|-----------------------------------1--2----------------------|


Chorus:

A|-----2--3--2--0-----2--0-----2--3-----2--0-----2--3-|
E|-1---1--0--3--0--1--1--0--1--1--0--1--1--0--1--1--0-|
C|-----2--0--4--0-----2--0--2--2--0--2--2--0-----2--0-|
G|-2------0--0--0--2-----1--2-----0--2-----1--2-----0-|


Outro:

A|------------3-3----------3-3----|
E|-----0-0-----------0-0----------|
C|---0-----0-------0-----0--------|
G|--------------------------------|

A|--------0-0--------0-0----------|
E|---1-1--------1-1---------------|
C|-2----2-----2----2--------------|
G|--------------------------------|

A|------------2-2----------2-2---------3--3--|
E|-----1-1-----------1-1---------0-0------0--|
C|---2-----2-------2-----2-----0-----0--0-0--|
G|-------------------------------------------|

Almost there ...

Sign in to get your own page with links to favourite songs and more. You are just one click away...

Login with Facebook Login with Google