Search tabs and chords

Search for song, artist or band

Log in

One click and you are in

Login with Facebook Login with Google

Why sign up and log in

Guitar Tabs Explorer
Nada Surf guitar tabs for Zen brain

Guitar tabs

Aritst : Nada Surf
Album  : High/Low
Song   : Zen Brain
						play 7 times
|2-----2-----2---|4-----------4---|0-----0-----0---|0-----0-----0---| |
|2-----2-----2---|2-----2-----2---|2-2-2-2-2-2-2-2-|2-2-2-2-2-2-2-2-| |
|2-2-2-2-2-2-2-2-|2-2-2-2-2-2-2-2-|1-1-1-1-1-1-1-1-|1-1-1-1-1-1-1-1-|.|
|0-0-0-0-0-0-0-0-|4-4-4-x-x-x-x-x-|2-2-2-2-2-2-2-2-|2-2-2-2-2-2-2-2-|.|
|----------------|------4-4-4-4-4-|2-2-2-2-2-2-2-2-|2-2-2-2-2-2-2-2-| |
|----------------|----------------|----------------|----------------| |

|----------------|----------------|----------------|----------------|
|----------------|----------------|----------------|----------------|
|----------------|----------------|----------------|----------------|
|----------------|----------------|----------------|----------------|
|7-7-7-7-7-7-7-7-|2-2-2-2-2-2-2-2-|4-4-4-4-4-4-4-4-|7-7-7-7-7-7-7-7-|
|5-5-5-5-5-5-5-5-|0-0-0-0-0-0-0-0-|2-2-2-2-2-2-2-2-|5-5-5-5-5-5-5-5-|
pm-----------------------------------------------------------------

|----------------|----------------|----------------|
|----------------|----------------|----------------|
|----------------|----------------|----------------|
|----------------|----------------|7-7-7-7-7-7-7-7-|
|7-7-7-7-7-7-7-7-|2-2-2-2-2-2-2-2-|5-5-5-5-5-5-5-5-|
|5-5-5-5-5-5-5-5-|0-0-0-0-0-0-0-0-|----------------|
(pm)-------------------------------------------|
                                   (grad release of mute)

CHORUS
|----------------|----------------|----------------|----------------|
|----------------|----------------|----------------|----------------|
|----------------|----------------|----------------|----------------|
|----------------|----------------|----------------|----------------|
|7---7--77-7-7---|7---7--77-7-7---|4---4--44-4-4---|2---2--22-2-2---|
|5---5--55-5-5---|4---4--44-4-4---|2---2--22-2-2---|0---0--00-0-0---|

|----------------|----------------|----------------|----------------|
|----------------|----------------|----------------|----------------|
|----------------|----------------|----------------|----------------|
|7---7--77-7-7---|----------------|7-7-7-7-7-7-7-7-|----------------|
|5---5--55-5-5---|7---7--77-7-7---|5-5-5-5-5-5-5-5-|7---7--77-7-7---|
|----------------|5---5--55-5-5---|----------------|5---5--55-5-5---|

|----------------|----------------|----------------|----------------|
|----------------|----------------|----------------|----------------|
|----------------|----------------|----------------|----------------|
|----------------|----------------|----------------|7---7--77-7-7---|
|7---7--77-7-7---|4---4--44-4-4---|2---2--22-2-2---|5---5--55-5-5---|
|4---4--44-4-4---|2---2--22-2-2---|0---0--00-0-0---|----------------|

|----------------|
|----------------|
|----------------|
|----------------|
|7---7--77-7-7---|
|5---5--55-5-5---|

SOLO
(i'm sorry, I don't know the guitar chords - Listen!

|----------------|----------------|----------------| |
|10---10=========|10---9==========|================| |
|----------------|----------------|----------------|.|
|----------------|----------------|----------------|.|
|----------------|----------------|----------------| |
|----------------|----------------|----------------| |

go back to begining...play 4 times

CHORUS

|----------------|----------------|----------------|----------------|
|----------------|----------------|----------------|----------------|
|----------------|----------------|----------------|----------------|
|----------------|----------------|----------------|----------------|
|7---7--77-7-7---|7---7--77-7-7---|4---4--44-4-4---|2---2--22-2-2---|
|5---5--55-5-5---|4---4--44-4-4---|2---2--22-2-2---|0---0--00-0-0---|

|----------------|----------------|----------------|----------------|
|----------------|----------------|----------------|----------------|
|----------------|----------------|----------------|----------------|
|7---7--77-7-7---|----------------|7-7-7-7-7-7-7-7-|----------------|
|5---5--55-5-5---|7---7--77-7-7---|5-5-5-5-5-5-5-5-|7---7--77-7-7---|
|----------------|5---5--55-5-5---|----------------|5---5--55-5-5---|

|----------------|----------------|----------------|----------------|
|----------------|----------------|----------------|----------------|
|----------------|----------------|----------------|----------------|
|----------------|----------------|----------------|7---7--77-7-7---|
|7---7--77-7-7---|4---4--44-4-4---|2---2--22-2-2---|5---5--55-5-5---|
|4---4--44-4-4---|2---2--22-2-2---|0---0--00-0-0---|----------------|

|----------------|----------------|----------------|
|----------------|----------------|----------------|
|----------------|----------------|----------------|
|----------------|4---4---4---4---|4-4-4-4-4-4-4-4-|
|7---7--77-7-7---|2---2---2---2---|2-2-2-2-2-2-2-2-|
|5---5--55-5-5---|----------------|----------------|

play this again to the last two bars.

end on:

|----------------||
|----------------||
|----------------||
|4===============||
|2===============||
|----------------||

This is my own work.

Other versions of Zen Brain

Zen brainChords
data-matched-content-ui-type="image_card_stacked"

Almost there ...

Sign in to get your own page with links to favourite songs and more. You are just one click away...

Login with Facebook Login with Google