Search tabs and chords

Search for song, artist or band

Log in

One click and you are in

Login with Facebook Login with Google

Why sign up and log in

Guitar Tabs Explorer
Nada Surf bass tabs for Zen brain

Bass tabs

Artist : Nada Surf
Album  : High/Low
Song   : Zen Brain

BASS TAB

INTRO (after guitar gets done)
|----------------|----------------|----------------|------4---------|
|----------------|----------------|----------------|2---------------|
|----------------|----------------|------2---------|----------------|
|----------------|----------------|0---------------|----------------|
*play at normal volume here

|----------------|----------------|----------------|----------------|
|----------------|----------------|----------------|----------------|
|5===============|4===============|----------------|----------------|
|----------------|----------------|0===============|================|

|----------------|----------------|----------------|----------------|
|----------------|4===============|----------------|----------------|
|5===============|----------------|----------------|----------------|
|----------------|----------------|0===============|================|

|----------------|----------------|----------------|----------------|
|-----/7---6---4-|------6--/7-----|----------------|----------------|
|5---------------|4---------------|------2---------|------2---------|
|----------------|----------------|0---------------|0---------------|

play twice
|----------------|----------------|----------------|------4---------|
|-----/7---6---4-|------6--/7-----|----------------|2---------------|
|5---------------|4---------------|------2---------|----------------|
|----------------|----------------|0---------------|----------------|

|----------------|----------------|----------------|----------------|
|----------------|----------------|----------------|----------------|
|----------------|----------------|----------------|----------------|
|5-5-5-5-5-5-5-5-|0-0-0-0-0-0-0-0-|2-2-2-2-2-2-2-2-|5-5-5-5-5-5-5-5-|
"wait for summer..."

|----------------|----------------|----------------|
|----------------|----------------|----------------|
|----------------|----------------|5-5-5-5-5-5-5-5/|
|5-5-5-5-5-5-5-5-|0-0-0-0-0-0-0-0-|----------------|
"zennnnnnnnn..."

CHORUS

NOTE: "@" means 12th fret (on any string)
"#" means 11th fret (on any string)

|----------------|----------------|----------------|----------------|
|----------------|----------------|----------------|----------------|
|@---@--@@-@-@---|#---#--##-#-#---|9---9--99-9-9---|7---7--77-7-7---|
|----------------|----------------|----------------|----------------|

|----------------|----------------|----------------|----------------|
|----------------|----------------|----------------|----------------|
|5---5--55-5-5---|0---0--00-0-0---|5-5-5-5-5-5-5-5/|@---@--@@-@-@---|
|----------------|----------------|----------------|----------------|

|----------------|----------------|----------------|----------------|
|----------------|----------------|----------------|----------------|
|#---#--##-#-#---|9---9--99-9-9---|7---7--77-7-7---|5---5--55-5-5---|
|----------------|----------------|----------------|----------------|

|----------------|
|----------------|
|0---0--00-0-0---|
|----------------|

GUITAR SOLO

after this, all the parts just repeat again.
not in the same order, but i'm
sure you can put it together.
see the guitar tab for the outro
This is my own work.

Almost there ...

Sign in to get your own page with links to favourite songs and more. You are just one click away...

Login with Facebook Login with Google