Search tabs and chords

Search for song, artist or band

Log in

One click and you are in

Login with Facebook Login with Google

Why sign up and log in

Guitar Tabs Explorer
Nada Surf guitar chords for Weightless

Guitar chords

Album: Lucky
Tabbed by: Necriononguitar
E-Mail: Tim.Rathge@web.de

Tuning: Half-Step Down
(u can use the normal one too)
This song has got 2 Parts:
The Main Part (The Chorus)
And the slower Part (The Verse)

The Chorus:
    A chord diagramE MajorE          A chord diagramBB         A chord diagramG#G#        A chord diagramD#D# A chord diagramC#C#
E------------------------------------------------|
B------------------------------------------------|
G---99--9-9------------------------88-6-6--------|
D---99--9-9----99--9-9---66--6-6---88-6-6--------|
A---77--7-7----99--9-9---66--6-6---66-4-4--------|
E--------------77--7-7---44--4-4-----------------|

The Post-Chorus (small Part between Chorus and Verse):
     A chord diagramC#C#    A chord diagramBB    A chord diagramA#A#
E--------------------------------|
B--------------------------------|
G--------------------------------|
D----11----9----8----------------|
A----11----9----8----------------|
E----9-----7----6----------------|

The Verse: (Hit every Chord once)
    A chord diagramBB  A chord diagramA#A# A chord diagramG#G# A chord diagramF#F#  A chord diagramC#C#     A chord diagramBB
E---------------------------------|
B---------------------------------|
G----------------6--6---4---------|
D---9--8--6--4---6--6---4---------|
A---9--8--6--4---4--4---2---------|
E---7--6--4--2--------------------|

Actually the is no guitar in the verse, but the bass plays this.

Thats it!
Have Fun

Other versions of Weightless

Weightless acousticChords

Almost there ...

Sign in to get your own page with links to favourite songs and more. You are just one click away...

Login with Facebook Login with Google