Search tabs and chords

Search for song, artist or band

Log in

One click and you are in

Login with Facebook Login with Google

Why sign up and log in

Guitar Tabs Explorer
Nada Surf bass tabs for Treehouse

Bass tabs

Artist : Nada Surf
Albums : Karmic, High/Low
Song   : Treehouse

DESPITE THEIR APPEARANCE, ALL BARS ARE THE SAME LENGTH!

I don't know the exact opening chord - its kind of strange
|-------------------|------------------|
|-------------------|------------------|
|11---11--1111-11-9-|------------------|
|-0----0---0-0--0-0-|11--11-11-9---7---|
|-------------------|-0---0--0-0---0---|
|-------------------|------------------|

fill 1
| |----------------------------| |
| |----------------------------| |
|.|16---16---1616---16-18------|.|
|.|-x----x----x-x----x--x------|.|
| |14---14---1414---14-16------| |
| |----------------------------| |

fill 2
|---------------------------|----------------------|
|---------------------------|----------------------|
|16--1616--16--1616-18-14---|14-14-14---14-14-14---|
|-x---x-x---x---x-x--x--x---|-x--x--x----x--x--x---|
|14--1414--14--1414-16-12---|12-12-12---12-12-12---|
|---------------------------|----------------------|

fill 3 is the same as above only you hold the last note

CHORUS

B -> A -> E -> F#
B -> A -> F# -> E

fill 4
|--------------------------|----------------------|
|------------------------19|19-19-19---19-19-19---|
|16--1616-18--1818-19-21--x|-x--x--x----x--x--x---|
|-x---x-x--x---x-x--x--x-16|16-16-16---16-16-16---|
|14--1414-16--1616-17-19---|----------------------|
|--------------------------|----------------------|

BRIDGE

|-----------------|--------------------|--------------------|
|-----------------|--------------------|--------------------|
|-------14--------|----------16--------|----------18--------|
|-----0----0----0-|--------0----0----0-|--------0----0----0-|
|12----------12---|12/14----------14---|14/16----------16---|
|-----------------|--------------------|--------------------|

|--------------------|
|--------------------|
|----------19--------|
|--------0----0------|
|16/17----------17---|
|--------------------|

forgive the sloppyness of this..
This is my own work.

Almost there ...

Sign in to get your own page with links to favourite songs and more. You are just one click away...

Login with Facebook Login with Google