Search tabs and chords

Search for song, artist or band

Log in

One click and you are in

Login with Facebook Login with Google

Why sign up and log in

Guitar Tabs Explorer
Nada Surf guitar chords for The plan

Guitar chords

Artist : Nada Surf
Album  : High/Low
Song   : The Plan

This song has a ton of two digit botes so I'm not even going attempt
to use bars in these songs.  Please refer to the bass tab for proper
barring.

The second digit of two digit numbers line up w/ single notes

|---------------------------------------------------------------
|--------------------------10-----------------------------------
|7-777-7---7-7---10-101010--x----10-10--------------------------
|x-xxx-x---x-x----x--x-x-x--x-----x--x---10-101010-10----10-10--
|5-555-5---5-5/---8--8-8-8--8-----8--8----x--x-x-x--x-----x--x--
|-----------------------------------------8--8-8-8--8-----8--8--

-----------------
-----------------
-9-999-12--11--9-
-x-xxx--x---x--x-
-7-777-10---9--7-
-----------------

that's the first part

here's the verse:

|---------------------------------------------------------
|-----------------------------------------11==0-0===0-0===
|14--14--14-14-14------------------12-12---x--0-0===0-0===
|-x---x---x--x--x-10--101010--1010--x--x---9==0-0===0-0===
|12--12--12-12-12--x---x-x-x---x-x-10-10------------------
|------------------8---8-8-8---8-8------------------------

And instead of those ZEROS on some parts, play this:

|---------------
|---------------
|---------------
|---7-12-7------
|12========12===
|---------------

This is the bridge part:
(I can tab this properly :))

|----0=======0===|====0=======0===|====0=======0===|====0=======0===|
|----0=======0===|====0=======0===|====0=======0===|====0=======0===|
|5-5-5===5-5-5===|====4=======4===|====0=======0===|4-4-4===4-4-4===|
|5-5-5===5-5-5===|5-5-5===5-5-5===|2-2-2===2-2-2===|4-4-4===4-4-4===|
|3-3-3===3-3-3===|5-5-5===5-5-5===|2-2-2===2-2-2===|2-2-2===2-2-2===|
|----------------|3-3-3===3-3-3===|0-0-0===0-0-0===|----------------|

Repeat that a bunch of times

OUTRO

Unknown (figure it out if you can!)
This is my own work.

Other versions of The Plan

The planTabs

Almost there ...

Sign in to get your own page with links to favourite songs and more. You are just one click away...

Login with Facebook Login with Google