Search tabs and chords

Search for song, artist or band

Log in

One click and you are in

Login with Facebook Login with Google

Why sign up and log in

Guitar Tabs Explorer
Nada Surf bass tabs for The plan

Bass tabs

Artist : Nada Surf
Album  : High/Low
Song   : The Plan

BASS TAB

There's some weird audio screw up at the begining...

*********************************
NOTE: ! = 10th fret on any string
*********************************

INTRO

|----------------|----------------|----------------|----------------|
|----------------|----------------|----------------|----------------|
|!-!!!-!---!-!\--|5-555-5---5-5/--|8-888-8---8-8\--|3-333-3---3-3/--|
|----------------|----------------|----------------|----------------|

|----------------|
|----------------|
|!-!!!-!---!-!\--|
|----------------|

(band enter)

                                                        play twice
|----------------|----------------|----------------|----------------|
|----------------|----------------|----------------|----------------|
|5-555-5---5-5/--|8-888-8---8-8\--|3-333-3---3-3/--|!-!!!-!---!-!\--|
|----------------|----------------|----------------|----------------|

VERSE
                                                        play 3 times
|----------------|----------------|----------------|----------------|
|----------------|3-3-3-3---3-3-2-|----------------|----------------|
|5---5---5-5---5-|----------------|3---3---3-3-----|3-----3-----3/--|
|----------------|----------------|--------------3-|----3-----3-----|

|----------------|----------------|----------------|----------------|
|----------------|3-3-3-3---3-3-2-|----------------|----------------|
|5---5---5-5---5-|----------------|3---3---3-3-----|3---3---3---3---|
|----------------|----------------|--------------3-|--3---3---3---3-|

                                                          play twice
|----------------|----------------|----------------|----------------|
|----------------|----------------|----------------|----------------|
|5-555-5---5-5/--|8-888-8---8-8\--|3-333-3---3-3/--|!-!!!-!---!-!\--|
|----------------|----------------|----------------|----------------|

VERSE 2
                                                        play 4 times
|----------------|----------------|----------------|----------------|
|----------------|----------------|----------------|----------------|
|5---5---5-5---5/|8---8-8-8---8-8\|3---3---3-3---3-|3---3-3---3-3/--|
|----------------|----------------|----------------|----------------|

INTRO RIFF

|----------------|----------------|----------------|----------------|
|----------------|----------------|----------------|----------------|
|5-555-5---5-5/--|8-888-8---8-8\--|3-333-3---3-3/--|!-!!!-!---!-!\--|
|----------------|----------------|----------------|----------------|

|----------------|----------------|
|----------------|----------------|
|5-555-5---5-5/--|8-888-8---8-8---|
|----------------|----------------|

BRIDGE (slow down to half speed)

NOTE: # means 12th fret

|----------------|----------------|----------------|----------------|
|----------------|----------------|----------------|----------------|
|---(guitar)-----|----------------|----------------|----------------|
|----------------|------------3/--|#-#-#-#-#-#-#-#\|7-7-7-7-7-7-7-7-|

|----------------|----------------|----------------|----------------|
|----------------|----------------|----------------|----------------|
|----------------|----------------|----------------|----------------|
|8-8-8-8-8-8-8-8-|3-3-3-3-3-3-5-5/|#-#-#-#-#-#-#-#\|7-7-7-7-7-7-7-7-|

repeat this a few times

the next parts are all written here (you figure out the order)

OUTRO

|----------------|----------------|----------------|----------------|
|----------------|----------------|----------------|----------------|
|5-555-5---5-5/--|8-888-8---8-8\--|3-333-3---3-3/--|!-!!!-0---1---3-|
|----------------|----------------|----------------|----------------|

This is my own work.

Almost there ...

Sign in to get your own page with links to favourite songs and more. You are just one click away...

Login with Facebook Login with Google