Search tabs and chords

Search for song, artist or band

Log in

One click and you are in

Login with Facebook Login with Google

Why sign up and log in

Guitar Tabs Explorer
Nada Surf guitar tabs for Telescope

Guitar tabs

Album : Karmic
Song  : Telescope

                                                         play 8 times
|----------------|----------------|----------------|----------------|
|----------------|----------------|----------------|----------------|
|9---9---9-9-9-8-|--8-8-8---8-8-8-|3---3---3-3-3-8-|--8-8-8---8-8-8-|
|9---9---9-9-9-9-|--9-9-9---9-9-9-|4---4---4-4-4-9-|--9-9-9---9-9-9-|
|7---7---7-7-7-7-|--7-7-7---7-7-7-|2---2---2-2-2-7-|--7-7-7---7-7-7-|
|----------------|----------------|----------------|----------------|

|----------------|----------------|----------------|
|----------------|----------------|----------------|
|----------------|----------------|--------------9-|
|9---9---9-9-9-7-|--7-7-7---7-7-7-|7---7---7-7-7-9-|
|9---9---9-9-9-7-|--7-7-7---7-7-7-|7---7---7-7-7-7-|
|7---7---7-7-7-5-|--5-5-5---5-5-5-|5---5---5-5-5---|

- play begining thing again

BRIDGE / SOLO

gtr. 1
|----------------|----------------|----------------|----------------|
|----------------|----------------|----------------|----------------|
|3---3---3-3-3-8-|--8-8-8---8-8-8-|3---3---3-3-3-8-|--8-8-8---8-8-8-|
|4---4---4-4-4-9-|--9-9-9---9-9-9-|4---4---4-4-4-9-|--9-9-9---9-9-9-|
|4---4---4-4-4-9-|--9-9-9---9-9-9-|4---4---4-4-4-9-|--9-9-9---9-9-9-|
|2---2---2-2-2-7-|--7-7-7---7-7-7-|2---2---2-2-2-7-|--7-7-7---7-7-7-|
|gtr. 2
|----------------|----------------|----------------|----------------|
|----------------|----------------|----------------|--7-----7---7---|
|----------------|----------------|----------------|----------------|
|----------------|----------------|----------------|----------------|
|--------------6-|--7---6-7-6-9---|7---7---6-7---9-|------9---9-----|
|2---2---2-6-----|----------------|----------------|----------------|

gtr.1
|----------------|----------------|----------------|----------------|
|----------------|----------------|----------------|----------------|
|3---3---3-3-3-8-|--8-8-8---8-8-8-|3---3---3-3-3-8-|--8-8-8---8-8-8-|
|4---4---4-4-4-9-|--9-9-9---9-9-9-|4---4---4-4-4-9-|--9-9-9---9-9-9-|
|4---4---4-4-4-9-|--9-9-9---9-9-9-|4---4---4-4-4-9-|--9-9-9---9-9-9-|
|2---2---2-2-2-7-|--7-7-7---7-7-7-|2---2---2-2-2-7-|--7-7-7---7-7-7-|
|gtr. 2
|----------------|----------------|5---4---4-5---5-|--12-11-9-7-----|
|9---7---5-7---7-|----7---b7--(7)-|----------------|----------------|
|----------------|----------------|----------------|----------------|
|----------------|--4---4---------|----------------|----------------|
|----------------|----------------|----------------|----------------|
|----------------|----------------|----------------|----------------|

! = 11th fret
@ = 12th fret
# = 13th fret

both guitars
|----------------|----------------|----------------|----------------|
|----------------|----------------|----------------|----------------|
|9-9-9-9-9-9-9-9-|!-!-!-!-!-!-!-!-|!-!-!-!-!-!-!-!-|#-#-#-#-#-#-#-#-|
|!-!-!-!-!-!-!-!-|#-#-#-#-#-#-#-#-|#-#-#-#-#-#-#-#-|#-#-#-#-#-#-#-#-|
|9-9-9-9-9-9-9-9-|!-!-!-!-!-!-!-!-|!-!-!-!-!-!-!-!-|!-!-!-!-!-!-!-!-|
|----------------|----------------|----------------|----------------|

|----------------|!-!-!-!-!-!-!-!-|!-!-!-!-!-!-!-!-|!-!-!-!-!-!-!-!-|
|@-@-@-@-@-@-@-@-|@-@-@-@-@-@-@-@-|@-@-@-@-@-@-@-@-|@-@-@-@-@-@-@-@-|
|#-#-#-#-#-#-#-#-|#-#-#-#-#-#-#-#-|#-#-#-#-#-#-#-#-|#-#-#-#-#-#-#-#-|
|#-#-#-#-#-#-#-#-|#-#-#-#-#-#-#-#-|#-#-#-#-#-#-#-#-|#-#-#-#-#-#-#-#-|
|!-!-!-!-!-!-!-!-|!-!-!-!-!-!-!-!-|!-!-!-!-!-!-!-!-|!-!-!-!-!-!-!-!-|
|----------------|----------------|----------------|----------------|

|!-!-!-!-!-!-!-!-|
|@-@-@-@-@-@-@-@-|
|#-#-#-#-#-#-#-#-|
|#-#-#-#-#-#-#-#-|
|!-!-!-!-!-!-!-!-|
|----------------|

CHORUS
                                                          repeat once
|----------------|----------------|----------------|----------------|
|----------------|----------------|----------------|----------------|
|----------------|----------------|--------------9-|--9-9-9---9-9-9-|
|9---9---9-9-9-7-|--7-7-7---7-7-7-|7---7---7-7-7-9-|--9-9-9---9-9-9-|
|9---9---9-9-9-7-|--7-7-7---7-7-7-|7---7---7-7-7-7-|--7-7-7---7-7-7-|
|7---7---7-7-7-5-|--5-5-5---5-5-5-|5---5---5-5-5---|----------------|

|----------------|----------------|----------------|----------------|
|----------------|----------------|----------------|----------------|
|----------------|----------------|--------------9-|--9-9-9-9-9-9-9-|
|9---9---9-9-9-7-|--7-7-7---7-7-7-|7---7---7-7-7-9-|--9-9-9-9-9-9-9-|
|9---9---9-9-9-7-|--7-7-7---7-7-7-|7---7---7-7-7-7-|--7-7-7-7-7-7-7-|
|7---7---7-7-7-5-|--5-5-5---5-5-5-|5---5---5-5-5---|----------------|

|----------------|----------------|----------------|
|----------------|----------------|----------------|
|8-8-8-8-8-8-8-8-|----------------|8-8-8-8---8-8-8-|
|9-9-9-9-9-9-9-9-|8-8-8-8-8-8-8-8-|9-9-9-9---9-9-9-|
|7-7-7-7-7-7-7-7-|9-9-9-9-9-9-9-9-|7-7-7-7---7-7-7-|
|----------------|7-7-7-7-7-7-7-7-|----------------|

SECOND SOLO

gtr. 1
|----------------|----------------|----------------|----------------|
|----------------|----------------|----------------|----------------|
|9---9---9-9-9-8-|--8-8-8---8-8-8-|--------------8-|--8-8-8---8-8-8-|
|9---9---9-9-9-9-|--9-9-9---9-9-9-|8---8---8-8-8-9-|--9-9-9---9-9-9-|
|7---7---7-7-7-7-|--7-7-7---7-7-7-|9---9---9-9-9-7-|--7-7-7---7-7-7-|
|----------------|----------------|7---7---7-7-7---|----------------|
|gtr. 2
|----------------|----------------|----------------|----------------|
|7-------7-------|7-------7-7-7-7-|7---7---7---7-7-|7-7^9^7---------|
|----4-------4---|----4-----------|----------------|--------6^4-----|
|----------------|----------------|----------------|----------------|
|----------------|----------------|----------------|----------------|
|----------------|----------------|----------------|----------------|

gtr. 1
|----------------|----------------|----------------|----------------|
|----------------|----------------|----------------|----------------|
|9---9---9-9-9-8-|--8-8-8---8-8-8-|--------------8-|--8-8-8---8-8-8-|
|9---9---9-9-9-9-|--9-9-9---9-9-9-|8---8---8-8-8-9-|--9-9-9---9-9-9-|
|7---7---7-7-7-7-|--7-7-7---7-7-7-|9---9---9-9-9-7-|--7-7-7---7-7-7-|
|----------------|----------------|7---7---7-7-7---|----------------|
|gtr. 2
|----------------|----------------|----------------|----------------|
|7---7---7---7-7-|--7---7-7-7-7---|7---7---7---7-7-|--7-4-----------|
|----------------|----------------|----------------|------6-4-------|
|----------------|----------------|----------------|----------------|
|----------------|----------------|----------------|----------------|
|----------------|----------------|----------------|----------------|

LAST VERSE ("I've been distracted from the...")

both gtrs                                                repeat once
|----------------|----------------|----------------|----------------|
|----------------|----------------|----------------|----------------|
|9---9---9-9-9-8-|--8-8-8---8-8-8-|--------------8-|--8-8-8---8-8-8-|
|9---9---9-9-9-9-|--9-9-9---9-9-9-|8---8---8-8-8-9-|--9-9-9---9-9-9-|
|7---7---7-7-7-7-|--7-7-7---7-7-7-|9---9---9-9-9-7-|--7-7-7---7-7-7-|
|----------------|----------------|7---7---7-7-7---|----------------|

OUTRO

						      (play 4 times)
|----------------|----------------|----------------|----------------|
|----------------|----------------|----------------|----------------|
|3---3---3-3-3-8-|--8-8-8---8-8-8-|3---3---3-3-3-8-|--8-8-8---8-8-8-|
|4---4---4-4-4-9-|--9-9-9---9-9-9-|4---4---4-4-4-9-|--9-9-9---9-9-9-|
|4---4---4-4-4-9-|--9-9-9---9-9-9-|4---4---4-4-4-9-|--9-9-9---9-9-9-|
|2---2---2-2-2-7-|--7-7-7---7-7-7-|2---2---2-2-2-7-|--7-7-7---7-7-7-|

! = 11th fret
@ = 12th fret
# = 13th fret

both guitars
|----------------|----------------|----------------|----------------|
|----------------|----------------|----------------|----------------|
|9-9-9-9-9-9-9-9-|!-!-!-!-!-!-!-!-|!-!-!-!-!-!-!-!-|#-#-#-#-#-#-#-#-|
|!-!-!-!-!-!-!-!-|#-#-#-#-#-#-#-#-|#-#-#-#-#-#-#-#-|#-#-#-#-#-#-#-#-|
|9-9-9-9-9-9-9-9-|!-!-!-!-!-!-!-!-|!-!-!-!-!-!-!-!-|!-!-!-!-!-!-!-!-|
|----------------|----------------|----------------|----------------|

|----------------|!-!-!-!-!-!-!-!-|!-!-!-!-!-!-!-!-|!-!-!-!-!-!-!-!-|
|@-@-@-@-@-@-@-@-|@-@-@-@-@-@-@-@-|@-@-@-@-@-@-@-@-|@-@-@-@-@-@-@-@-|
|#-#-#-#-#-#-#-#-|#-#-#-#-#-#-#-#-|#-#-#-#-#-#-#-#-|#-#-#-#-#-#-#-#-|
|#-#-#-#-#-#-#-#-|#-#-#-#-#-#-#-#-|#-#-#-#-#-#-#-#-|#-#-#-#-#-#-#-#-|
|!-!-!-!-!-!-!-!-|!-!-!-!-!-!-!-!-|!-!-!-!-!-!-!-!-|!-!-!-!-!-!-!-!-|
|----------------|----------------|----------------|----------------|

|!-!-!-!-!-!-!-!-|!-!-!-!-!-!-!-!-|!-!-!-!-!-!-!-!-|!===============|
|@-@-@-@-@-@-@-@-|@-@-@-@-@-@-@-@-|@-@-@-@-@-@-@-@-|@===============|
|#-#-#-#-#-#-#-#-|#-#-#-#-#-#-#-#-|#-#-#-#-#-#-#-#-|#===============|
|#-#-#-#-#-#-#-#-|#-#-#-#-#-#-#-#-|#-#-#-#-#-#-#-#-|#===============|
|!-!-!-!-!-!-!-!-|!-!-!-!-!-!-!-!-|!-!-!-!-!-!-!-!-|!===============|
|----------------|----------------|----------------|----------------|

This is my own work.

Almost there ...

Sign in to get your own page with links to favourite songs and more. You are just one click away...

Login with Facebook Login with Google