Search tabs and chords

Search for song, artist or band

Log in

One click and you are in

Login with Facebook Login with Google

Why sign up and log in

Guitar Tabs Explorer
Nada Surf bass tabs for Telescope

Bass tabs

Album : Karmic
Song  : Telescope

BASS TAB

Intro Part
(Play twice)

||----------------|----------------|
||----------------|----------------|
||--(3 bar rest)--|------------2/--|
||----------------|----------------|

|----------------|----------------|----------------|----------------|
|--------------9-|----------------|----------------|----------------|
|7---7---7-7-7---|--7---9---7-----|--------------9-|----------------|
|----------------|----------------|7---7---7-7-7---|--7---9---7-----|
|----------------|----------------|----------------|----------------|
|--------------9-|----------------|----------------|----------------|
|7---7---7-7-7---|--7---9---7-----|--------------9-|----------------|
|----------------|----------------|7---7---7-7-7---|--7---9---7-7-9-|


VERSE  (play 3 times)

|----------------|----------------|----------------|----------------|
|----------------|----------------|----------------|----------------|
|7-7-7-7-7-7-7-6-|6-6-6-6-6-6-6-6-|--------------9-|----------------|
|----------------|----------------|7---7---7-7-7---|--7---7---7-7-9-|

|----------------|----------------|----------------|----------------|
|----------------|----------------|----------------|----------------|
|7-7-7-7-7-7-7-6-|6-6-6-6-6-6-6-6-|--------------9-|----------------|
|----------------|----------------|7---7---7-7-7---|--7---7---7-7-7-|

NEXT PART

|----------------|----------------|----------------|
|----------------|----------------|----------------|
|----------------|----------------|--------------7-|
|7---7---7-7-7-5-|--5-5-5---5-5-5-|5---5---5-5-5---|

VERSE AGAIN

|----------------|----------------|----------------|----------------|
|----------------|----------------|----------------|----------------|
|----7-7-7-7-7-6-|6-6-6-6-6-6-6-6-|--------------9-|----------------|
|----------------|----------------|7---7---7-7-7---|--7---7---7-7-9-|

|----------------|----------------|----------------|----------------|
|--------------9-|----------------|----------------|----------------|
|7---7---7-7-7---|--7---9---7-----|--------------9-|----------------|
|----------------|----------------|7---7---7-7-7---|--7---9---7-7-9-|

(play 3 times)
| |----------------|----------------|----------------|----------------|
|.|----------------|----------------|----------------|----------------|
|.|7-7-7-7-7-7-7-6-|6-6-6-6-6-6-6-6-|--------------9-|----------------|
| |----------------|----------------|7---7---7-7-7---|--7---7---7-7-9-|

|----------------|----------------|----------------|----------------|
|----------------|----------------|----------------|----------------|
|7-7-7-7-7-7-7-6-|6-6-6-6-6-6-6-6-|--------------9-|----------------|
|----------------|----------------|7---7---7-7-7---|--7---7---7-7-7-|

BRIDGE/SOLO
play 4 times
| |----------------|----------------| |
|.|----------------|----------------|.|
|.|----------------|----------------|.|
| |2---2---2-2-2/7-|--7-7-7---7-7-7-| |

|----------------|----------------|----------------|----------------|
|----------------|----------------|--------------6-|6-6-6-6-6-6-6-9-|
|4-4-4-4-4-4-4-6-|6-6-6-6-6-6-6-7-|7-7-7-7-7-7-7---|----------------|
|----------------|----------------|----------------|----------------|

|----------------|----------------|----------------|----------------|
|9-9-9-9-9-9-9-6-|6-6-6-6-6-6-6-9-|9-9-9-9-9-9-9-6-|6-6-6-6-9-9-9-9-|
|----------------|----------------|----------------|----------------|
|----------------|----------------|----------------|----------------|

|----------------|
|9-9-9-9-9-9-9-9-|
|----------------|
|----------------|

The rest is pretty much the same...
This is my own work.

Almost there ...

Sign in to get your own page with links to favourite songs and more. You are just one click away...

Login with Facebook Login with Google