Search tabs and chords

Search for song, artist or band

Log in

One click and you are in

Login with Facebook Login with Google

Why sign up and log in

Guitar Tabs Explorer
Nada Surf guitar tabs for Stalemate

Guitar tabs

Artist : Nada Surf
Album  : High/Low
Song   : Stalemate

INTRO / VERSE play 5 times

|----------------|----------------|----0-------0---|----0-------0---| |
|----0-------0---|----0-------0---|----0-------0---|----0-------0---| |
|----0-------0---|----0-------0---|----0-------0---|----0-------0---|.|
|0-0-0---0-0-0---|0-0-0---0-0-0---|0-0-0---0-0-0---|0-0-0---0-0-0---|.|
|101010--101010--|9-9-9---9-9-9---|9-9-9---9-9-9---|7-7-7---7-7-7---| |
|121212--121212--|101010--101010--|7-7-7---7-7-7---|5-5-5---5-5-5---| |

PRE-CHORUS

|5===============|================|2---x-2-x-3-x-5=|==========------|
|5===============|================|2---x-2-x-3-x-5=|==========------|
|6===============|================|3---x-3-x-4-x-6=|==========x-x-x-|
|7===============|================|4---x-4-x-5-x-7=|==========x-x-x-|
|7===============|================|4---x-4-x-5-x-7=|==========x-x-x-|
|5===============|================|2---x-2-x-3-x-5=|==========------|

|5===============|================|2---x-2-x-3-x---|----------------|
|5===============|================|2---x-2-x-3-x-7=|--77--7777777---|
|6===============|================|3---x-3-x-4-x-7=|--77--7777777---|
|7===============|================|4---x-4-x-5-x-7=|--77--7777777---|
|7===============|================|4---x-4-x-5-x-5=|--55--7555555---|
|5===============|================|2---x-2-x-3-x---|----------------|

CHORUS

|----------0-----|------0---------|----------------|----------------|
|----3-------3---|--3-------3-----|----2-----2---3-|3---3---33333---|
|------0---------|----0-------0---|--------------2-|2---2---22222---|
|--------0-------|----------------|--------2---2-0-|0---0---00000---|
|3---------------|----------------|0---------------|----------------|
|--------------0-|----------------|----------------|----------------|
*let strings ring throught
next two bars

|----------0-----|------0---------|----------------|
|----3-------3---|--3-------3-----|2===============|
|------0---------|----0-------0---|2===============|
|--------0-------|----------------|2===============|
|3---------------|----------------|0===============|
|--------------0-|----------------|----------------|
*let strings ring throught
next two bars

now repeat this whole thing from the beginging.  when you get
to the end again, replace the last bar w/ these two bars:

|----------------|----------------|
|2=============23|2===============|
|2===============|================|
|2===============|================|
|0===============|================|
|----------------|----------------|
*hammer on and pull off very quickly:
[---2^3^2----]

now bass and drums play for 8 bars

SOLO

It looks messy but the second digits of the two digit numbers
line up w/ the single digit numbers

|----------------|----------------|----------------|----------------|
|8-8-8-\-7-----7-|--7-7-\-7=======|75--5--10-7-----|-101010101210---|
|x-x-x---x-----x-|--x-x---x-------|--7---7-----9---|--x-x-x-x-x-x---|
|5-5-5-\-4-----4-|--4-4-\-2=======|--------------7-|--7-7-7-7/9\7---|
|----------------|----------------|----------------|----------------|
|----------------|----------------|----------------|----------------|

|----------------|----------------|----------------|----------------|
|8-8-8-\-7-----7-|--7-7-\-7=======|75--5--10-7-----|-101010101210---|
|x-x-x---x-----x-|--x-x---x-------|--7---7-----9---|--x-x-x-x-x-x---|
|5-5-5-\-4-----4-|--4-4-\-2=======|--------------7-|--7-7-7-7/9\7---|
|----------------|----------------|----------------|----------------|
|----------------|----------------|----------------|----------------|

|----------------|----------------|----------------|----------------|
|8===========8\7=|================|============7/14|=======101210===|
|x-----------x-x-|----------------|------------x--x|--------x-x-x---|
|5===========5\4=|================|============4/11|========7/9\7===|
|----------------|----------------|----------------|----------------|
|----------------|----------------|----------------|----------------|

|----------------|----------------|----------------|----------------|
|8===========8\7=|================|============7/14|=======101210===|
|x-----------x-x-|----------------|------------x--x|--------x-x-x---|
|5===========5\4=|================|============4/11|========7/9\7===|
|----------------|----------------|----------------|----------------|
|----------------|----------------|----------------|----------------|

|----------------|----------------|----------------|----------------|
|8===========8\7=|============7/15|============1514|=========101210=|
|x-----------x-x-|------------x--x|-------------x-x|----------x-x-x-|
|5===========5\4=|============4/12|============1211|==========7/9\7-|
|----------------|----------------|----------------|----------------|
|----------------|----------------|----------------|----------------|

|----------------|----------------|----------------|----------------|
|8===========8\7=|============7/15|============1514|=========101210=|
|x-----------x-x-|------------x--x|-------------x-x|----------x-x-x-|
|5===========5\4=|============4/12|============1211|==========7/9\7-|
|----------------|----------------|----------------|----------------|
|----------------|----------------|----------------|----------------|

|----------------|----------------|----------------|----------------|
|8===========8\7=|============7/15|============1514|=========101210=|
|x-----------x-x-|------------x--x|-------------x-x|----------x-x-x-|
|5===========5\4=|============4/12|============1211|==========7/9\7-|
|----------------|----------------|----------------|----------------|
|----------------|----------------|----------------|----------------|

|----------------|----------------|----------------|----------------|
|8===========8\7=|============7/15|============1514|=========101210=|
|x-----------x-x-|------------x--x|-------------x-x|----------x-x-x-|
|5===========5\4=|============4/12|============1211|==========7/9\7-|
|----------------|----------------|----------------|----------------|
|----------------|----------------|----------------|----------------|

|----------------||
|10==============||
|x---------------||
|7===============||
|----------------||
|----------------||

This is my own work.

Almost there ...

Sign in to get your own page with links to favourite songs and more. You are just one click away...

Login with Facebook Login with Google