Search tabs and chords

Search for song, artist or band

Log in

One click and you are in

Login with Facebook Login with Google

Why sign up and log in

Guitar Tabs Explorer
Nada Surf bass tabs for Stalemate

Bass tabs

Artist : Nada Surf
Album  : High/Low
Song   : Stalemate

BASS TAB

NOTE: all exclamation marks (!) in tab stand for the 10th fret
(of any string)  i'm just doing this to make tabbing easier :)

|--------------|----------------|
|--------------|----------------|
|---(3 bars)---|----------7-!-9-|
|--------------|----------------|

					 	         play 3 times
|----------------|----------------|----------------|----------------|
|----------------|----------------|----------------|----------------|
|7-7-!-!-9-9-7-7-|----9---9---!-9-|----!-!-9-9-7-7-|----!-!-9-9-!-9-|
|----------------|!-----!---!-----|7-7-------------|5-5-------------|

|----------------|----------------|----------------|----------------|
|----------------|----------------|----------------|------------5-4-|
|7-7-!-!-9-9-7-7-|----9---9---!-9-|----!-!-9-9-7-7-|----4---5-4-----|
|----------------|!-----!---!-----|7-7-------------|5-5---5---------|

CHORUS
|----------------|----------------|----------------|----------------|
|----------------|----------------|----------------|----------------|
|0===============|================|----------------|----------------|
|----------------|----------------|2---2-2---3---5=|================|

|----------------|----------------|----------------|----------------|
|----------------|----------------|----------------|----------------|
|----------------|----------------|--------------5=|====5===5=55555=|
|5===============|================|2---2-2---3-----|----------------|

|----------------|----------------|----------------|----------------|
|----------------|----------------|----------------|----------------|
|3---3---5-5-5---|--------2-2-2---|0---0---0-0-0-5-|----5---5-5-5-5-|
|--------------0=|===========-----|----------------|----------------|

|----------------|----------------|----------------|
|------------5---|----------------|----------------|
|3---3---5-7-----|----------------|0===============|
|--------------0=|================|----------------|*

go back to the begining and play this whole thing again
when you get to the end (marked "*"), let note ring for one extra bar:

>|----------------|
>|----------------|
>|----------------|
>|----------------|

INTERLUDE

| |----------------|----------------|----------------|----------------|
|.|----------------|----------------|----------------|----------------|
|.|7==========/!-9-|-----------/!-9-|-----------/!-9-|-----------/!-9-|
| |----------------|!========-------|7=========------|5=========------|

|----------------|----------------|----------------|----------------| |
|----------------|----------------|----------------|----------------|.|
|7===========9-!-|------------9-!-|------------9-!-|------------9-!-|.|
|----------------|!===========----|7===========----|5=========------| |

repeat this a bunch of times
notice how in the 4th bar of this lick, first it switches
from 10th (!) to 9th fret to 9th to 10th fret, then vice
versa on the eighth bar the end is the same as before
This is my own work.

data-matched-content-ui-type="image_card_stacked"

Almost there ...

Sign in to get your own page with links to favourite songs and more. You are just one click away...

Login with Facebook Login with Google