Search tabs and chords

Search for song, artist or band

Log in

One click and you are in

Login with Facebook Login with Google

Why sign up and log in

Guitar Tabs Explorer
Nada Surf guitar chords for Spooky

Guitar chords

Album : Proximity Effect
Song  : Spooky

Tabbed by bounav : bounav@free.fr
(Merci à Regis pour le début du chorus ;)

PS : tout y est mais écoutez qd meme avec le cd pour assembler les parties ensembles.
]>VERSE: (toutes les notes ne sont pas représentées : jouer chaque accord 8x...)
e|-----------|-----------|-----------|-----------|  \   \
B|-13--------|-15--------|-13--------|-12--------|  |   |
G|-14--------|-16--------|-14--------|-12--------|  |   |
D|-14--------|-14--------|-14--------|-14--------|  |   |
A|-12--------|-14--------|-12--------|-14--------|  |2x |
E|-----------|-----------|-----------|-----------|  /   |
|
e|-10--------|-10--------|-----------|-----------|      |
B|-10--------|-10--------|-15--------|-15--------|      |
G|-10--------|-10--------|-16--------|-16--------|      |
D|-12--------|-12--------|-14--------|-14--------|      |
A|-12--------|-12--------|-14--------|-14--------|      |
E|-----------|-----------|-----------|-----------|      |
|
e|-10--------|-10--------|-12--------|-12--------|      |
B|-10--------|-10--------|-12--------|-12--------|      |
G|-10--------|-10--------|-12--------|-12--------|      |
D|-12--------|-12--------|-14--------|-14--------|      | 2x
A|-12--------|-12--------|-14--------|-14--------|      |
E|-----------|-----------|-----------|-----------|      /

]>INTERLUDE:
e|-7---------|-7---------|-5---------|-5---------|
B|-8---------|-8---------|-5---------|-5---------|
G|-9---------|-9---------|-5---------|-5---------|
D|-9---------|-9---------|-7---------|-7---------|
A|-7---------|-7---------|-7---------|-7---------|
E|-7---------|-7---------|-5---------|-5---------|

]>CHORUS! (disto on)

e|--------|--------|                      |
B|55555555|55554444|                      |
G|55555555|55554444|                      |
D|55555555|55554444|                      |
A|33333333|22222222|2x                    |
E|--------|--------|                      |
|
e|--------|--------|--------|--------|    |
B|-10-----|-8------|--------|-8------|    |
G|-9------|-7------|-7------|-7------|    |
D|-7------|-5------|-7------|-5------|    |
A|--------|--------|-5------|--------|    |2x
E|--------|--------|--------|--------|    |

e|--------|--------|--------|--------|
B|-5------|-8------|--------|-8------|
G|-5------|-7------|-7------|-7------|
D|-5------|-5------|-7------|-5------|
A|-3------|--------|-5------|--------|
E|--------|--------|--------|--------|

]>Break:
e|-12--------|
B|-13--------| (jouez l'accord pdt 4 mesures avec)
G|-14--------|    (le pouce de la main gauche)
D|-14--------|         (effet percussif!)
A|-12--------|
E|-----------|

]>VERSE...
Au lieu de joue l'interlude passer directement au Bridge ci dessous

]>BRIDGE: (disto on)
e|----------------|------------------|
B|----------------|------------------|
G|----10-----10---|------------------|
D|-7--10--7--10---|-7-9-10---7-10-9--|
A|-7--8---7--8----|-7-9-10---7-10-9--|
E|-5------5-------|-5-7-8----5-8--7--|

e|----------------|------------------|
B|----------------|------------------|
G|----10-----10---|------------------|
D|-7--10--7--10---|-7-9-10---9-------|
A|-7--8---7--8----|-7-9-10---9-------|
E|-5------5-------|-5-7-8----7-------|

]>INTERLUDE...

]>CHORUS...
jouer une fois de plus les 4 deriers accors

]>FIN:
e|-----------|
B|-13...-----|
G|-14...-----|
D|-14...-----|
A|-12...-----|
E|-12...-----| laissez sonner...

Almost there ...

Sign in to get your own page with links to favourite songs and more. You are just one click away...

Login with Facebook Login with Google