Search tabs and chords

Search for song, artist or band

Log in

One click and you are in

Login with Facebook Login with Google

Why sign up and log in

Guitar Tabs Explorer
Nada Surf guitar tabs for Psychic caramel

Guitar tabs

Artist : Nada Surf
Album  : High/Low
Song   : Psychic Caramel

This is all I have got for now, but the whole song stays along these
lines...

|------7-------------|--------------------| |
|--------------------|-------10-----------| |
|------------0-------|---0---------0-----0|.|
|--------------------|--------------------|.|
|-7-------7-------/10|-----10--------10---| |
|--------------------|--------------------| |

|--------------------|--------------------|
|------7-------------|--------3-----------|
|------------0-------|---0---------0-----0|
|--------------------|--------------------|
|-7-------7--------\5|------5---------5---|
|--------------------|--------------------|

|--------------------|-------------3----0-|
|------7-------------|--------3----3----3-|
|------------0-------|---0----------------|
|--------------------|--------------------|
|-7-------7--------\5|--------------------|
|--------------------|--------------------|

|--------------------|--------------------|----------------2--2--2|
|--------------------|--------------------|-------2--2--2--2--2--2|
|-2==================|=============2--4--2|-2--2--2--2--2--2--2--2|
|-4==================|=============3--4--2|-4--2--4--2--4--2--4--2|
|-2==================|=============2--4--2|-2--2--2--2--2--2--2--2|
|--------------------|--------------------|-----------------------|

|-2--2--2--2--2--2--2--2|
|-2--2--2--2--2--2--2--2|
|-2--2--2--2--2--2--2--2|
|-4--2--4--2--4--2--4--2|
|-2--2--2--2--2--2--2--2|
|-----------------------|

ENDING

|----------------|---------------------| |
|----------------|---------------------| |
|-9-9-9-9-9-9-9-9|-9-9-9-9/12--12-12-12|.|
|----------------|---------------------|.|
|-9-9-9-9-9-9-9-9|-9-9-9-9/12--12-12-12| |
|----------------|---------------------| |

|------------------------|-----------------|
|------------------------|-----------------|
|-14---14---14-14-14-14--|-14---14-14-14-14|
|------------------------|-----------------|
|-14---14---14-14-14-14--|-14---14-14-14-14|
|------------------------|-----------------|

|------------------------|-----------------|
|------------------------|-----------------|
|-16---16---16-16-16-16--|-16---16-16-16-16|
|------------------------|-----------------|
|-16---16---16-16-16-16--|-16---16-16-16-16|
|------------------------|-----------------|

This is my own work.

Almost there ...

Sign in to get your own page with links to favourite songs and more. You are just one click away...

Login with Facebook Login with Google