Search tabs and chords

Search for song, artist or band

Log in

One click and you are in

Login with Facebook Login with Google

Why sign up and log in

Guitar Tabs Explorer
Nada Surf bass tabs for Popular

Bass tabs

Song Title: Popular
----------------------------------------------


standard tuning

G------------------------------------------------------12-----
D-----9/10--------------9/10-9--------------------9/10--------
A-----------------------------10-7----------------------------
E-------------------------------------------------------------

G-------------------------------------------------------------
D--9/10-9-----------------------------------------------------
A--------10-7-------------------------------------------------
E--------------------7/8--------------2------------------7----
verse:  play these two little things over and over
G-------------------------------------------------------------
D-------------------------------------------------------------
A-------------------------------------------------------------
E--7/88888888----7-8-7/00000000-------------------------------

but then you get to a different riff
G-------------------------------------------------------------
D-------------------------------------------------------------
A-------------------------------------------------------------
E--2222222/7-77777777-----------------------------------------

chorus
G-------------------------------------------------------------
D-------------------------------------------------------------
A-0-0-0--00-0-0-0---------------------------------------------
E-----------------3-3-3--3\0/3-3-3-3--------------------------
play this over and over til you reach the next thing

G-------------------------------------------------------------
D-------------------------------------------------------------
A-------------------------------------------------------------
E--3\1111111--1/888888888-------------------------------------

and this is the order
intro
verse
chorus
verse
intro
verse
chorus ending   |
|
|
\ /

G----------------------------------------------------------------------
D----------------------------------------------------------------------
A----------------------------------------------------------------------
E----3\1111111--1/888888888-0-5 (let ring)-----------------------------



thats it
im only 14 and this is my first submitting to this or whatever
email me, ive tabbed some stuff
nirvana, beastie boys, and a bunch of other stuff
ive only been playing for about 7 months, email me
LATER!!!!!!!!!!!!!!!!1

Submitted by:  Jon Beber (Bassman68@aol.com)

Almost there ...

Sign in to get your own page with links to favourite songs and more. You are just one click away...

Login with Facebook Login with Google