Search tabs and chords

Search for song, artist or band

Log in

One click and you are in

Login with Facebook Login with Google

Why sign up and log in

Guitar Tabs Explorer
Nada Surf guitar tabs for La pour ca

Guitar tabs

Tuning: Standard (EADGBE)

ACOUSTIC GUITAR:
I
-----0-----------------------------------------|
-----------1-----1-----1-----------------------|
-----------------------------------------------|
-----------------------------------------------|
--0-----0--------------------------------------|
--------------0-----3--------------------------|

ELECTRIC GUITAR WITH I:
-----0-----------------------------------------|
-----------1-----------------------------------|
--------2--------------------------------------|
--------------------2--------------------------|
-----------------------------------------------|
-----------------------------------------------|

ACOUSTIC GUITAR:

II
-----------0-----------------------------------|
-----1-----------1-----1-----------------------|
-----------------------------------------------|
--3-----3-----3-----3--------------------------|
-----------------------------------------------|
-----------------------------------------------|

III
-----------0-----------------------------------|
-----1-----------1-----1-----------------------|
-----------------------------------------------|
--2-----2-----2-----2--------------------------|
-----------------------------------------------|
-----------------------------------------------|

IV
-----------0-----------------------------------|
-----1-----------1-----1-----------------------|
-----------------------------------------------|
-----------------------------------------------|
--3-----3-----3-----3--------------------------|
-----------------------------------------------|

V
-----------0-----------------------------------|
-----1-----------1-----1-----------------------|
-----------------------------------------------|
-----------------------------------------------|
-----------------------------------------------|
--2-----2-----2-----2--------------------------|

ELECTRIC GUITAR:
WITH: II III IV V
-------0--0--0--0-------0----------------------|
-------1--1--1--1-------1----------------------|
-------2--0--0--2---0R--2---(X4)---------------|
-------3--2--2--3-------3----------------------|
-----------------------------------------------|
-----------------------------------------------|

Pattern:

INTRO: I X4

Almost there ...

Sign in to get your own page with links to favourite songs and more. You are just one click away...

Login with Facebook Login with Google