Search tabs and chords

Search for song, artist or band

Log in

One click and you are in

Login with Facebook Login with Google

Why sign up and log in

Guitar Tabs Explorer
Nada Surf guitar tabs for Killians red

Guitar tabs with lyrics

KILLIAN'S RED - Nada Surf
Adapted from tab by: (il9691@email.com, lewis_ricardo@hotmail.com)

Tuning: Standard (EADGBE)

Chords used (in chorus)

Em7 chord diagramEm7Em7
--0-----0-----0-----0-------------------------------------|
--0-----1-----1-----3-------------------------------------|
--1-----0-----2-----0-------------------------------------|
--2-----2-----3-----2-------------------------------------|
--2-----3-----3-----2-------------------------------------|
--------------1-----0-------------------------------------|
Intro:

I(X4)                  II
--------------------|----------------------------------------------|
-----------6--------|-----------6-------------------------6--------|
--------9-----9-----|--------7-----7-------------------0-----0-----|    (X2)
-----7-----------7--|-----7-----------7----(X3)-----7-----------7--|
--0-----------------|--0-------------------------0-----------------|
--------------------|----------------------------------------------|

(Bass comes in)

III (X4)              II
--------------------|-----------------------------------------------|
-----------8--------|-----------6-------------------------6---------|
--------9-----9-----|--------7-----7-------------------0-----0------|
-----7-----------7--|-----7-----------7----(X3)-----7-----------7---|  (X3)
--0-----------------|--0-------------------------0------------------|
--------------------|-----------------------------------------------|

I (X16)
--------------------|
-----------6--------|
--------9-----9-----|
-----7-----------7--|
--0-----------------|
--------------------|

Verse:
(Putting this night down to bed...)
I (X2)                Ia (X2)               III (X4)
--------------------|--------------------|--------------------|
-----------6--------|-----------6--------|-----------8--------|
--------9-----9-----|--------9-----9-----|--------9-----9-----|
-----7-----------7--|-----7-----------7--|-----7-----------7--|
--0-----------------|--------------------|--0-----------------|
--------------------|--8-----------------|--------------------|
Well go on vacation tonight...
(hold first two bass notes for two beats)
-------------------------------------------------------------------|
--------6---------------6---------------8-----------------8--------|
-----9-----9---------9-----9---------9-----9-----------9-----9-----|
--------------7-------------------7-----------7-----7-----------7--|
--8---------------7------------5-----------------5-----------------|
-------------------------------------------------------------------|

Chorus:
C chord diagramCC
(When Im by your) side...
Fmaj7 chord diagramFmaj7Fmaj7
You woke me from a long sleep
C chord diagramCC
And Im almost back
C chord diagramCC
Closer than ever to finding the hidden track
Fmaj7 chord diagramFmaj7Fmaj7
If I told you the truth
Am chord diagramAmAm
You wouldnt like what I said
C chord diagramCC
I almost believed I was dead
Am chord diagramAmAm
There'll be no more waiting
C chord diagramCC
You're gonna melt all the ice in my head
Am chord diagramAmAm
Therell be no more crying
C chord diagramCC
You're gonna make it all better instead


[Verse 2, same as Verse 1]


I get secrets at night...
Ib chord diagramIbIb (X2)                     I (X2)               Ia (X2)             III (X2)
|-------------------------|--------------------|--------------------|--------------------|
|-----------6-------------|-----------6--------|-----------6--------|-----------8--------|
|--------9-----9----------|--------9-----9-----|--------9-----9-----|--------9-----9-----|       X2
|-----7-----------7-------|-----7-----------7--|-----7-----------7--|-----7-----------7--|
|--8----------------------|--0-----------------|--------------------|--0-----------------|
|-------------------------|--------------------|--8-----------------|--------------------|


Well go on vacation tonight...
(hold first two bass notes for two beats)
-------------------------------------------------------------------|
--------6---------------6---------------8-----------------8--------|
-----9-----9---------9-----9---------9-----9-----------9-----9-----|
--------------7-------------------7-----------7-----7-----------7--|
--8---------------7------------5-----------------5-----------------|
-------------------------------------------------------------------|


Chorus


Ending:

Almost there ...

Sign in to get your own page with links to favourite songs and more. You are just one click away...

Login with Facebook Login with Google