Search tabs and chords

Search for song, artist or band

Log in

One click and you are in

Login with Facebook Login with Google

Why sign up and log in

Guitar Tabs Explorer
Nada Surf bass tabs for Killians red

Bass tabs

Band: Nada Surf
Album: Let Go


My tab isn't 100% accurate. Especially the chorus.
So, if you have corrections to submit, please leave a comment.
Bass start at 0:18


Intro, Pt. 1 (x3)
G|-----------2-----|
D|-------------2-3-|
A|-0-0--0--0-------| x2
E|-----------------|

G|-----------2-----|-----------2-----------|
D|-0-0--0--0---2-3-|-0-0--0--0---5-3-5-3-2-|
A|-----------------|-----------------------|
E|-----------------|-----------------------|


Intro, Pt. 2 (x8)
G|-----------2-----|
D|-------------2-3-|
A|-0-0--0--0-------|
E|-----------------|


Verse (x3)
G|-----------2-----|
D|-------------2-3-|
A|-0-0--0--0-------|
E|-----------------|

G|-----------2-----|
D|-------------2-3-|
A|-3-3--3--3-------|
E|-----------------|

G|-----------2-----|-----------2-----------|
D|-0-0--0--0---2-3-|-0-0--0--0---5-3-5-3-2-|
A|-----------------|-----------------------|
E|-----------------|-----------------------|

Pre-Chorus 1 (x3)
G|----------------|
D|----------------|
A|-8---7-8---7-5~-|
E|---5-----5------|


Chorus
G|-------------------------------------|---------------------------------------|
D|-------------------------------------|-4/6--6-6-6--6--6--6-------------------|
A|-------------------3--3-3-3--3--3--3-|---------------------3--3-3-3--3--3--3-|
E|-5--5-5-5--5--5--5-------------------|---------------------------------------|

G|-------------------------------------------|-------------------5-4---5-4-2-|
D|-------------------7/10--10-10-10----------|-----------------------5-------|
A|----------------------------------8--8-8-8-|-------------------------------| x2
E|-8--8-8-8--8--8--8-------------------------|-8--8-8-8--8--8--8-------------|

G|-------------------------------------------|
D|-------------------7/10--10-10-10----------|
A|----------------------------------8--8-8-8-|
E|-8--8-8-8--8--8--8-------------------------|

G|--------------------------------------|------------------------------------------|
D|--------------------------------------|------------------------------------------|
A|--------------------------------------|------------------------------------------| x3
E|-5--5-5-5--5--5--5--8--8-8-8--8--8--8-|5--5-5-5--5/12-11-10-7--7-7-7--7/14-13-11-|

G|-----|
D|-----|
A|-0~~-|
E|-----|


Intro, Pt. 1 (x2)


Verse (x3)


Pre-Chorus 2
G|---------------------------|
D|---------------------------|
A|-8~--7-5-0~--2-3~-3-2-0-5~-| x2
E|---------------------------|

G|----------------|
D|----------------|
A|-8---7-8---7-5~-| x3
E|---5-----5------|


Chorus (without the A|-0~~-| at the end)


End
G|-------------------------------------|
D|-------------------------------------|
A|-------------------3--3-3-3--3--3--3-| x5
E|-5--5-5-5--5--5--5-------------------|

G|------------------------------------------|--------------------|------------------|
D|------------------------------------------|--------------------|-7-7--7-7-7-7-7-7-|
A|------------------------------------------|-7-7--7---7-7--7--7-|------------------| x2
E|5--5-5-5--5/12-11-10-7--7-7-7--7/14-13-11-|--------------------|------------------|

G|------------------------------------------|--------------------|------|
D|------------------------------------------|--------------------|-7~~~-|
A|------------------------------------------|-7-7--7---7-7--7--7-|------|
E|5--5-5-5--5/12-11-10-7--7-7-7--7/14-13-11-|--------------------|------|

Almost there ...

Sign in to get your own page with links to favourite songs and more. You are just one click away...

Login with Facebook Login with Google