Search tabs and chords

Search for song, artist or band

Log in

One click and you are in

Login with Facebook Login with Google

Why sign up and log in

Guitar Tabs Explorer
Nada Surf guitar tabs for In the mirror

Guitar tabs

After watching it played live, I think this is how it goes:

Capo III

Intro/Verse
e|-----------------------------------------------------------------------------------|
B|-----------------------------------------------------------------------------------|
G|-----------------------------------------------------------------------------------|
D|---------0----0----0---------0----0----0-----------0---0---0---------0----0---0----|
A|----0-------------------0---------------------0-----------------0------------------|
E|-11---11---11---11---10---10---10---10-----6----6----6---6----8----8----8----8-----|

Chorus/Outro
e|--------------------------------------------------------|
B|--------------------------------------------------------|
G|--------------------------------------------------------|
D|---0---0---0---0----0---0------0---0---0---0---0----0---|
A|--------------------------------------------------------|
E|-11--11--11--11---10--10------6---6---6---6---8---8-----|

Almost there ...

Sign in to get your own page with links to favourite songs and more. You are just one click away...

Login with Facebook Login with Google