Search tabs and chords

Search for song, artist or band

Log in

One click and you are in

Login with Facebook Login with Google

Why sign up and log in

Guitar Tabs Explorer
Nada Surf guitar tabs for Icebox

Guitar tabs with lyrics

-------------------------------------------------------------------------------
ICEBOX - Nada Surf
-------------------------------------------------------------------------------
Tuning: Standard
INTRO


e|--0---------|
B|----7-------|
G|------0-----| x8
D|--------9---|
A|------------|
E|------------|

e|-0-0-0-0-0-0-0-0-0-0-0-0-0-0-0-0-|
B|-7-7-7-7-7-7-7-7-7-7-7-7-7-7-7-7-|
G|-0-0-0-0-0-0-0-0-0-0-0-0-0-0-0-0-| x4
D|-9-9-9-9-9-9-9-9-9-9-9-9-9-9-9-9-|
A|---------------------------------|
E|---------------------------------|

e|-0-0-0-0-0-0-0-0-0-0-0-0-0-0-0-0-|-------------|-0-0-0-0-0-0-0-0-0-0-0-0-0-0-0-0-|-------------|
B|-7-7-7-7-7-7-7-7-7-7-7-7-7-7-7-7-|-------------|-7-7-7-7-7-7-7-7-7-7-7-7-7-7-7-7-|-------------|
G|-0-0-0-0-0-0-0-0-0-0-0-0-0-0-0-0-|-------------|-0-0-0-0-0-0-0-0-0-0-0-0-0-0-0-0-|-------------|
D|-9-9-9-9-9-9-9-9-9-9-9-9-9-9-9-9-|-4-4-4-4-4-4-|-9-9-9-9-9-9-9-9-9-9-9-9-9-9-9-9-|-4-4-4-4-4-4-|
A|---------------------------------|-2-2-2-2-2-2-|---------------------------------|-2-2-2-2-2-2-|
E|---------------------------------|-------------|---------------------------------|-------------|

e|-0-0-0-0-0-0-0-0-0-0-0-0-0-0-0-0-|-0-0-0-0-0-0-0-0-0-0-0-0-0-0-0-0-|
B|-7-7-8-7-7-7-8-7-7-7-8-7-7-7-8-7-|-5-5-6-5-5-5-6-5-5-5-6-5-5-5-6-5-|
G|-0-0-0-0-0-0-0-0-0-0-0-0-0-0-0-0-|-0-0-0-0-0-0-0-0-0-0-0-0-0-0-0-0-| x2
D|-9-9-9-9-9-9-9-9-9-9-9-9-9-9-9-9-|-7-7-7-7-7-7-7-7-7-7-7-7-7-7-7-7-|
A|---------------------------------|---------------------------------|
E|---------------------------------|---------------------------------|




VERSE ONE

Stay until You're sure that I'm asleep, Warm safe and very still

e|-0-0-0-0-0-0-0-0-0-0-0-0-0-0-0-0-|-0-0-0-0-0-0-0-0-0-0-0-0-0-0-0-0-|
B|-7-7-8-7-7-7-8-7-7-7-8-7-7-7-8-7-|-5-5-6-5-5-5-6-5-5-5-6-5-5-5-6-5-|
G|-0-0-0-0-0-0-0-0-0-0-0-0-0-0-0-0-|-0-0-0-0-0-0-0-0-0-0-0-0-0-0-0-0-|
D|-9-9-9-9-9-9-9-9-9-9-9-9-9-9-9-9-|-7-7-7-7-7-7-7-7-7-7-7-7-7-7-7-7-|
A|---------------------------------|---------------------------------|
E|---------------------------------|---------------------------------|


Give all my things away             Just wait until tomorrow

e|-2-2-2-2-2-2-2-2-2-2-2-2-2-2-2-2-|-0-0-0-0-0-0-0-0-0-0-0-0-0-0-0-0-|
B|-3-3-3-3-3-3-3-3-3-3-3-3-3-3-3-3-|-1-1-1-1-1-1-1-1-1-1-1-1-1-1-1-1-|
G|-2-2-2-2-2-2-2-2-2-2-2-2-2-2-2-2-|-2-2-2-2-2-2-2-2-2-2-2-2-2-2-2-2-|
D|-0-0-0-0-0-0-0-0-0-0-0-0-0-0-0-0-|-2-2-2-2-2-2-2-2-2-2-2-2-2-2-2-2-|
A|---------------------------------|-0-0-0-0-0-0-0-0-0-0-0-0-0-0-0-0-|
E|---------------------------------|---------------------------------|





CHORUS ONE

Bury me in sorrow                   Cover me in joy

e|---------------------------------|-5-5-5-5-5-5-5-5-5-5-5-5-5-5-5-5-|
B|---------------------------------|-3-3-3-3-3-3-3-3-3-3-3-3-3-3-3-3-|
G|-0-0-0-0-0-0-0-0-0-0-0-0-0-0-0-0-|-0-0-0-0-0-0-0-0-0-0-0-0-0-0-0-0-|  x2
D|-2-2-2-2-2-2-2-2-2-2-2-2-2-2-2-2-|-0-0-0-0-0-0-0-0-0-0-0-0-0-0-0-0-|
A|-2-2-2-2-2-2-2-2-2-2-2-2-2-2-2-2-|-2-2-2-2-2-2-2-2-2-2-2-2-2-2-2-2-|
E|-0-0-0-0-0-0-0-0-0-0-0-0-0-0-0-0-|-3-3-3-3-3-3-3-3-3-3-3-3-3-3-3-3-|




VERSE TWO

Every afternoon            I wasted being mad at You

e|-0-0-0-0-0-0-0-0-0-0-0-0-0-0-0-0-|-0-0-0-0-0-0-0-0-0-0-0-0-0-0-0-0-|
B|-7-7-8-7-7-7-8-7-7-7-8-7-7-7-8-7-|-5-5-6-5-5-5-6-5-5-5-6-5-5-5-6-5-|
G|-0-0-0-0-0-0-0-0-0-0-0-0-0-0-0-0-|-0-0-0-0-0-0-0-0-0-0-0-0-0-0-0-0-|
D|-9-9-9-9-9-9-9-9-9-9-9-9-9-9-9-9-|-7-7-7-7-7-7-7-7-7-7-7-7-7-7-7-7-|
A|---------------------------------|---------------------------------|
E|---------------------------------|---------------------------------|


The things I never said        The things I can't say tomorrow

e|-2-2-2-2-2-2-2-2-2-2-2-2-2-2-2-2-|-0-0-0-0-0-0-0-0-0-0-0-0-0-0-0-0-|
B|-3-3-3-3-3-3-3-3-3-3-3-3-3-3-3-3-|-1-1-1-1-1-1-1-1-1-1-1-1-1-1-1-1-|
G|-2-2-2-2-2-2-2-2-2-2-2-2-2-2-2-2-|-2-2-2-2-2-2-2-2-2-2-2-2-2-2-2-2-|
D|-0-0-0-0-0-0-0-0-0-0-0-0-0-0-0-0-|-2-2-2-2-2-2-2-2-2-2-2-2-2-2-2-2-|
A|---------------------------------|-0-0-0-0-0-0-0-0-0-0-0-0-0-0-0-0-|
E|---------------------------------|---------------------------------|





CHORUS TWO

Bury me in sorrow                   Cover me in joy

e|---------------------------------|-5-5-5-5-5-5-5-5-5-5-5-5-5-5-5-5-|
B|---------------------------------|-3-3-3-3-3-3-3-3-3-3-3-3-3-3-3-3-|
G|-0-0-0-0-0-0-0-0-0-0-0-0-0-0-0-0-|-0-0-0-0-0-0-0-0-0-0-0-0-0-0-0-0-|  x2
D|-2-2-2-2-2-2-2-2-2-2-2-2-2-2-2-2-|-0-0-0-0-0-0-0-0-0-0-0-0-0-0-0-0-|
A|-2-2-2-2-2-2-2-2-2-2-2-2-2-2-2-2-|-2-2-2-2-2-2-2-2-2-2-2-2-2-2-2-2-|
E|-0-0-0-0-0-0-0-0-0-0-0-0-0-0-0-0-|-3-3-3-3-3-3-3-3-3-3-3-3-3-3-3-3-|




BREAK

e|--0---------|--0---------|--0---------|--0---------|
B|----7-------|----7-------|----5-------|----5-------|
G|------0-----|------0-----|------0-----|------0-----|   x2
D|--------9---|--------9---|--------7---|--------7---|
A|------------|------------|------------|------------|
E|------------|------------|------------|------------|






VERSE 3

After death i'll think of You somehow           I'll have an eternity

e|-0-0-0-0-0-0-0-0-0-0-0-0-0-0-0-0-|-0-0-0-0-0-0-0-0-0-0-0-0-0-0-0-0-|
B|-7-7-8-7-7-7-8-7-7-7-8-7-7-7-8-7-|-5-5-6-5-5-5-6-5-5-5-6-5-5-5-6-5-|
G|-0-0-0-0-0-0-0-0-0-0-0-0-0-0-0-0-|-0-0-0-0-0-0-0-0-0-0-0-0-0-0-0-0-|
D|-9-9-9-9-9-9-9-9-9-9-9-9-9-9-9-9-|-7-7-7-7-7-7-7-7-7-7-7-7-7-7-7-7-|
A|---------------------------------|---------------------------------|
E|---------------------------------|---------------------------------|



to think about tomorrow            I beg of You tomorrow

e|-2-2-2-2-2-2-2-2-2-2-2-2-2-2-2-2-|-0-0-0-0-0-0-0-0-0-0-0-0-0-0-0-0-|
B|-3-3-3-3-3-3-3-3-3-3-3-3-3-3-3-3-|-1-1-1-1-1-1-1-1-1-1-1-1-1-1-1-1-|
G|-2-2-2-2-2-2-2-2-2-2-2-2-2-2-2-2-|-2-2-2-2-2-2-2-2-2-2-2-2-2-2-2-2-|
D|-0-0-0-0-0-0-0-0-0-0-0-0-0-0-0-0-|-2-2-2-2-2-2-2-2-2-2-2-2-2-2-2-2-|
A|---------------------------------|-0-0-0-0-0-0-0-0-0-0-0-0-0-0-0-0-|
E|---------------------------------|---------------------------------|









CHORUS 3

Bury me in sorrow                   Cover me in joy

e|---------------------------------|-5-5-5-5-5-5-5-5-5-5-5-5-5-5-5-5-|
B|---------------------------------|-3-3-3-3-3-3-3-3-3-3-3-3-3-3-3-3-|
G|-0-0-0-0-0-0-0-0-0-0-0-0-0-0-0-0-|-0-0-0-0-0-0-0-0-0-0-0-0-0-0-0-0-|  x3
D|-2-2-2-2-2-2-2-2-2-2-2-2-2-2-2-2-|-0-0-0-0-0-0-0-0-0-0-0-0-0-0-0-0-|
A|-2-2-2-2-2-2-2-2-2-2-2-2-2-2-2-2-|-2-2-2-2-2-2-2-2-2-2-2-2-2-2-2-2-|
E|-0-0-0-0-0-0-0-0-0-0-0-0-0-0-0-0-|-3-3-3-3-3-3-3-3-3-3-3-3-3-3-3-3-|





OUTRO

e|-7-7-7-7-7-7-7-7-7-7-7-7---8--|-5-5-5-5-5-5-5-5-5-5-5---8---10-|
B|-7-7-7-7-7-7-7-7-7-7-7-7---8--|-5-5-5-5-5-5-5-5-5-5-5---8---10-|
G|------------------------------|--------------------------------|  x2
D|-9-9-9-9-9-9-9-9-9-9-9-9---10-|-7-7-7-7-7-7-7-7-7-7-7---10--12-|
A|------------------------------|--------------------------------|
E|------------------------------|--------------------------------|



e|-0-0-0-0-0-0-0-0-0-0-0-0-0-0-0-0-|-0-0-0-0-0-0-0-0-0-0-0-0-0-0-0-0-|
B|-7-7-8-7-7-7-8-7-7-7-8-7-7-7-8-7-|-5-5-6-5-5-5-6-5-5-5-6-5-5-5-6-5-|
G|-0-0-0-0-0-0-0-0-0-0-0-0-0-0-0-0-|-0-0-0-0-0-0-0-0-0-0-0-0-0-0-0-0-|  x2
D|-9-9-9-9-9-9-9-9-9-9-9-9-9-9-9-9-|-7-7-7-7-7-7-7-7-7-7-7-7-7-7-7-7-|
A|---------------------------------|---------------------------------|
E|---------------------------------|---------------------------------|


************************************

| /   slide up
| \   slide down
| h   hammer-on
| p   pull-off
| ~   vibrato
| +   harmonic
| x   Mute note
| b   Bend
| pb  Pre-bend
| br  Bend release
| pbr Pre-bend release
| brb Bend release bend

Other versions of Icebox

IceboxChords

Almost there ...

Sign in to get your own page with links to favourite songs and more. You are just one click away...

Login with Facebook Login with Google