Search tabs and chords

Search for song, artist or band

Log in

One click and you are in

Login with Facebook Login with Google

Why sign up and log in

Guitar Tabs Explorer
Nada Surf guitar chords for Icebox

Guitar chords with lyrics

Artist : Nada Surf
Album  : High/Low
Song   : Icebox

i think this song might have a weird tuning or something because the
begining is such a stretch...but this is what i've got so far:

INTRO
|0------------|
|--7----------|
|----0--------|
|------9------|
|-------------|
|-------------|

that's the intro...then just play that as a chord whilt the
bass does all it's cool stuff

|-0-|
|-7-|
|-0-|
|-9-|
|---|
|---|

then he plays this in the middle of all that
(heavy distortion)

|----------|
|----------|
|----------|
|---4-4-4-4|
|---2-2-2-2|
|----------|

then it plays all that stuff again then it plays the previous
chord again

this is the singing part:

VERSE
|0-0-0-0-0-0-0-0-|0-0-0-0-0-0-0-0-|0-0-0-0-0-0-0-0-|0-0-0-0-0-0-0-0-|
|7-7-8-7-7-7-8-0-|7-7-8-7-7-7-8-0-|5-5-6-5-5-5-6-5-|5-5-6-5-5-5-6-5-|
|0-0-0-0-0-0-0-0-|0-0-0-0-0-0-0-0-|0-0-0-0-0-0-0-0-|0-0-0-0-0-0-0-0-|
|9-9-9-9-9-9-9-9-|9-9-9-9-9-9-9-9-|7-7-7-7-7-7-7-7-|7-7-7-7-7-7-7-7-|
|----------------|----------------|----------------|----------------|
|----------------|----------------|----------------|----------------|

play this a bunch of times

[-------]

The "bury me in sorrow" part is this... D chord diagramDD, Am chord diagramAmAm, Em chord diagramEmEm, *G*, Em chord diagramEmEm, *G*

********************************************************
* and this how you play them:                          *
*                                                      *
* [ D chord diagramDD ] [ Am chord diagramAmAm] [ Em chord diagramEmEm] [*G*]                              *
*                                                      *
* |-2-| |-0-| |-0-| |-5-| {-------NOTE THE EXTRA NOTE! *
* |-3-| |-1-| |-0-| |-3-|                              *
* |-2-| |-2-| |-0-| |-0-|                              *
* |---| |-2-| |-2-| |-0-|                              *
* |---| |-0-| |-2-| |-2-|                              *
* |---| |---| |-0-| |-3-|                              *
********************************************************

then it plays the intro riff twice
then this (twice):

|0------------|
|--5----------|
|----0--------|
|------7------|
|-------------|
|-------------|

then play that whole thing again...

The rest is pretty much the same :)

Well, this is the last "solo" part:

|7-7-7-7-7-7-7-7-|--------------------|----------------|
|7-7-7-7-7-7-7-7-|--------------------|----------------|
|0-0-0-0-0-0-0-0-|-11-11----12--------|9-9-9-9-9-9-9-9-|
|9-9-9-9-9-9-9-9-|-x--x--x--x-----x---|x-x-x-x-x-x-x-x-|
|----------------|-9--9--9--9----10---|7-7-7-7-7-7-7-7-|
|----------------|--------------------|----------------|

|---------------------|
|---------------------|
|---------------------|
|9-9-9-11----12-------|
|x-x-x--x-----x-------|
|7-7-7--9----10-------|

This is my own work.

Other versions of Icebox

IceboxTabs

Almost there ...

Sign in to get your own page with links to favourite songs and more. You are just one click away...

Login with Facebook Login with Google