Search tabs and chords

Search for song, artist or band

Log in

One click and you are in

Login with Facebook Login with Google

Why sign up and log in

Guitar Tabs Explorer
Nada Surf bass tabs for Icebox

Bass tabs

Artist : Nada Surf
Album  : High/Low
Song   : Icebox

BASS TAB

Please note, the bassist has timing changes - if you are trying
to perform this with a band, listen to the song a lot and you
can do it!

after the guitar has done all it's stuff:

play 4 times
|----------------|----------------| |
|--------2-2-2---|----------------|.|
|0-0-0-2-------2-|3-3-3-3-3-3-3-3-|.|
|----------------|----------------| |
|----------------|----------------| |------------| |----------------|
|----2---------2-|----2---------2-|3|------------|4|----2---------2-|
|0-2---3-2-0-2---|0-2---3-2-0-2---|4|2-2-2-2-2-2-|4|0-2---3-2-0-2---|
|----------------|----------------| |------------| |----------------|

|----------------| |------------| |----------------|----------------|
|----2---------2-|3|------------|4|----2---------2-|----2---------2-|
|0-2---3-2-0-2---|4|2-2-2-2-2-2-|4|0-2---3-2-0-2---|0-2---3-2-0-2---|
|----------------| |------------| |----------------|----------------|

|----2=====2=====|2=====2=====2===|----------------|----------------|
|----------------|----------------|----2---------2-|----2---------2-|
|0-0---0-0---0-0-|--0-0---0-0-----|0-2---3-2-0-2---|0-2---3-2-0-2---|
|----------------|----------------|----------------|----------------|

|----2=====2=====|2=====2=====2===|
|----------------|----------------|
|0-0---0-0---0-0-|--0-0---0-0---0-|
|----------------|----------------|

VERSE

|----------------|----------------|----2=====2=====|2=====2=======2=|
|----------------|----------------|----------------|----------------|
|0-0-0-0-0-0-0-0-|0-0-0-0-0-0-0-0-|0-0---0-0---0-0-|--0-0---0-0-0---|
|----------------|----------------|----------------|----------------|

CHORUS
(sorry...I don't know this for sure yet)  I think the bass just
follows the guitar chords.

(D, Am, Em, G, Em, G)

This is my own work.

Almost there ...

Sign in to get your own page with links to favourite songs and more. You are just one click away...

Login with Facebook Login with Google