Search tabs and chords

Search for song, artist or band

Log in

One click and you are in

Login with Facebook Login with Google

Why sign up and log in

Guitar Tabs Explorer
Nada Surf guitar chords for Hyperspace

Guitar chords with lyrics

Album : Proximity Effect
Song  : Hyperspace

The begining of this gets really confusing cos of that organ
thingy...anyway...enough excuses...on with the tab.
little fill thing...(listen for it)
e|/12------11
B|-----12----


gtrs. 1&2
|----------------|----------------|----------------|----------------|
|----------------|----------------|----------------|----------------|
|--9---8---------|----------------|--9---8---------|----------------|
|----------9---9-|--9---9---9---9-|----------9---9-|--9---9---9---9-|
|----------------|----------------|----------------|----------------|
|7---7---7---7---|7---7---7---7---|7---7---7---7---|7---7---7---7---|

You're really gonna have to listen to the record here cos this hammer
on/off happens too quickly to tab correctly.

|----------------|----------------|----------------|----------------|
|----------------|----------------|---(8)------0---|----------------|
|--8---9---------|--8---9---------|--9-8^9^8-------|--8-------------|
|----------9----9|----------9---9-|---(9)----------|------9---9---9-|
|----------------|----------------|----------------|----------------|
|7---7---7---7---|7---7---7---7---|7---------7-----|----7---7---7---|

|----------------|----------------|----------------|----------------|
|---(8)------0---|----------------|---(8)------0---|----------------|
|--9-8^9^8-------|--8-------------|--9-8^9^8-------|--8-------------|
|---(9)----------|------9---9---9-|---(9)----------|------9---9---9-|
|----------------|----------------|----------------|----------------|
|7---------7-----|----7---7---7---|7---------7-----|----7---7---7---|

|----------------|----------------|----------------|----------------|
|----------------|----------------|---(8)------0---|----------------|
|--8---9---------|--8---9---------|--9-8^9^8-------|--8-------------|
|----------9----9|----------9---9-|---(9)----------|------9---9---9-|
|----------------|----------------|----------------|----------------|
|7---7---7---7---|7---7---7---7---|7---------7-----|----7---7---7---|

|----------------|----------------|----------------|----------------|
|----------------|----------------|----------------|----------------|
|9-8---8-9-8---8-|9-8---8-9-8-9-88|9-8---8-9-8---8-|9-8---8-9-8-9-88|
|9-9---9-9-9---9-|9-9---9-9-9-9-99|9-9---9-9-9---9-|9-9---9-9-9-9-99|
|x-x---x-x-x---x-|x-x---x-x-x-x-xx|x-x---x-x-x---x-|x-x---x-x-x-x-xx|
|7-7---7-7-7---7-|7-7---7-7-7-7-77|7-7---7-7-7---7-|7-7---7-7-7-7-77|

VERSE (enter band)

gtrs. 1&2                                             play 3 times
|----------------|----------------|----------------|----------------|
|----------------|----------------|----------------|----------------|
|9-8--88-9-8---8-|9-8--88-9-8-9-88|9-8--88-9-8---88|9-8--88-9-8-9-88|
|9-9--99-9-9---9-|9-9--99-9-9-9-99|9-9--99-9-9---99|9-9--99-9-9-9-99|
|x-x--xx-x-x---x-|x-x--xx-x-x-x-xx|x-x--xx-x-x---xx|x-x--xx-x-x-x-xx|
|7-7--77-7-7---7-|7-7--77-7-7-7-77|7-7--77-7-7---77|7-7--77-7-7-7-77|

**********
*        *
* ! = 11 *
*        *
**********

gtr. 1
|----------------|----------------|0---0-0-----0---|--0-0-0-0-0-0-0-|
|----------------|----------------|0---0-0-----0---|--0-0-0-0-0-0-0-|
|!-!-!-!-!-!-!-!-|!-!-!-!-!-!-!-!-|1---1-1-----1---|--1-1-1-1-1-1-1-|
|!-!-!-!-!-!-!-!-|!-!-!-!-!-!-!-!-|2---2-2-----2---|--2-2-2-2-2-2-2-|
|9-9-9-9-9-9-9-9-|9-9-9-9-9-9-9-9-|2---2-2-----2---|--2-2-2-2-2-2-2-|
|----------------|----------------|0---0-0-----0---|--0-0-0-0-0-0-0-|
|                                                                   |
|gtr. 2                                                             |
|----------------|----------------|0---0-0-----0---|--0-0-0-0-0-0-0-|
|----------------|----------------|0---0-0-----0---|--0-0-0-0-0-0-0-|
|3-3-3-3-3-3-3-3-|3-3-3-3-3-3-3-3-|1---1-1-----1---|--1-1-1-1-1-1-1-|
|4-4-4-4-4-4-4-4-|4-4-4-4-4-4-4-4-|2---2-2-----2---|--2-2-2-2-2-2-2-|
|4-4-4-4-4-4-4-4-|4-4-4-4-4-4-4-4-|2---2-2-----2---|--2-2-2-2-2-2-2-|
|2-2-2-2-2-2-2-2-|2-2-2-2-2-2-2-2-|0---0-0-----0---|--0-0-0-0-0-0-0-|

Ok, so theres nothing new for awhile (I'm sure you can work out the order)

The it does one last thing of these with a slight change at the end there...

|----------------|----------------|----------------|----------------|
|----------------|----------------|----------------|----------------|
|9-8--88-9-8---8-|9-8--88-9-8-9-88|9-8--88-9-8---88|9-8---8---------|
|9-9--99-9-9---9-|9-9--99-9-9-9-99|9-9--99-9-9---99|9-9---9---------|
|x-x--xx-x-x---x-|x-x--xx-x-x-x-xx|x-x--xx-x-x---xx|x-x---x-!---!---|
|7-7--77-7-7---7-|7-7--77-7-7-7-77|7-7--77-7-7---77|7-7---7-9---9---|

...and this takes us into the PRE-CHORUS keeping in mind
that a ! denotes the 11th fret!!!!!!!!!

|----------------|----------------|----------------|----------------|
|----------------|----------------|----------------|----------------|
|----------------|----------------|9-8--88-9-8---88|9-8---8---------|
|----------------|----------------|9-9--99-9-9---99|9-9---9---------|
|6---6-6---6-6-6-|--6-666/!---!---|7-7--77-7-7---77|7-7---7-!---!---|
|4---4-4---4-4-4-|--4-444/9---9---|7-7--77-7-7---77|7-7---7-9---9---|

|----------------|----------------|----------------|----------------|
|----------------|----------------|----------------|----------------|
|----------------|----------------|9-8--88-9-8---88|9-8--88-9-8---88|
|----------------|----------------|9-9--99-9-9---99|9-9--99-9-9---99|
|6---6-6---6-6-6-|--6-666/!---!---|7-7--77-7-7---77|7-7--77-7-7---77|
|4---4-4---4-4-4-|--4-444/9---9---|7-7--77-7-7---77|7-7--77-7-7---77|

CHORUS

|11--------------|----------------|13--------------|---------------|
|12--------------|----------------|11--------------|---------------|
|11--------------|----------------|11--------------|---------------|
|----------------|----------------|----------------|---------------|
|----------------|----------------|----------------|---------------|
|----------------|----------------|----------------|---------------|

|7---------------|----------------|12--------------|---------------|
|9---------------|----------------|12--------------|---------------|
|8---------------|----------------|13--------------|---------------|
|----------------|----------------|----------------|---------------|
|----------------|----------------|----------------|---------------|
|----------------|----------------|----------------|---------------|

|12-11-----12-11-|----|12-11-----12-11-----|
|12-12-----12-12-|----|12-12-----12-12-----|
|----------------|-------------------------|
|----------------|-------------------------|
|----------------|-------------------------|
|----------------|-------------------------|
|                                          |
|                                          |
|0-0-----0-0-----|0-0-----0-0--------------|
|0-0-----0-0-----|0-0-----0-0--------------|
|9-8-----9-8-----|9-8-----9-8--------------|
|9-9-----9-9-----|9-9-----9-9--------------|
|x-x-----x-x-----|x-x-----x-x--------------|
|7-7-----7-7-----|7-7-----7-7--------------|

It has now come to the point where it will be redundant to go any
further.I leave it up to you to listen to the record and put it all
together.
This is my own work

Almost there ...

Sign in to get your own page with links to favourite songs and more. You are just one click away...

Login with Facebook Login with Google