Search tabs and chords

Search for song, artist or band

Log in

One click and you are in

Login with Facebook Login with Google

Why sign up and log in

Guitar Tabs Explorer
Nada Surf bass tabs for Hyperspace

Bass tabs

Artist : Nada Surf
Album  : Proximity Effect
Song   : Hyperspace

BASS TAB

(lots of guitar before bass kicks in)

|----------------|----------------|----------------|----------------|
|----------------|----------------|----------------|----------------|
|----------------|----------------|----------------|----------------|
|7---------------|----------------|----------------|----------------|

|----------------|----------------|----------------|----------------|
|----------------|----------------|----------------|----------------|
|----------------|------6-7-9-7-6-|----------------|------6-7-9-7-6-|
|7---------------|----------------|7---------------|----------------|

|----------------|----------------|----------------|----------------|
|----------------|----------------|----------------|----------------|
|----------------|------6-7-9-7-6-|----------------|------6-7-9-7-6-|
|7---------------|----------------|7---------------|----------------|

|----------------|----------------|----------------|----------------|
|----------------|----------------|----------------|----------------|
|----------------|----------------|----------------|----------------|
|7---------------|----------------|----------------|--------------77|

VERSE

|----------------|----------------|----------------|----------------|
|----------------|----------------|----------------|----------------|
|----------------|--------9-------|----------------|--------9-------|
|9-7-7-779-7-7-77|9-7-7-77--7-7-77|9-7-7-779-7-7-77|9-7-7-77--7-7-77|

play that a bunch of times and then there's this part:

|----------------|----------------|----------------|----------------|
|----------------|----------------|----------------|----------------|
|9-9-9-9-9-9-9-9-|9-9-9-9-9-9-9-9-|7-7-7-7-7-7-7-7-|7-6-7-6-7-6-7-6-|
|----------------|----------------|----------------|----------------|

then go back and put those together by listening to the record
and then comes this:

|----------------|----------------|----------------|----------------|
|----------------|----------------|----------------|----------------|
|----------------|--------9-------|----------------|----------------|
|9-7-7-779-7-7-77|9-7-7-77--7-7-77|9-7-7-779-7-7-77|9-7-7-7-9---9---|

PRE-CHORUS

|----------------|----------------|----------------|----------------|
|----------------|----------------|----------------|----------------|
|----------------|----------------|----------------|----------------|
|4-4-4-4-4-4-4-4-|4-4-4-4-9---9---|7-7-7-7-7-7-7-7-|7-7-7-7-9---9---|

|----------------|----------------|----------------|----------------|
|----------------|----------------|----------------|----------------|
|----------------|----------------|----------------|----------------|
|4-4-4-4-4-4-4-4-|4-4-4-4-9---9---|7-7-7-7-7-7-7-7-|7-7-7-7-7-7\2-2/|

CHORUS

|----------------|----------------|----------------|----------------|
|----------------|----------------|----------------|----------------|
|----------------|----------------|----------------|----------------|
|7-7-7-7-7-7-7-7-|7-7-7-7-7-7-7-7-|6-6-6-6-6-6-6-6-|6-6-6-6-6-6-6-6-|

|----------------|----------------|----------------|----------------|
|----------------|----------------|----------------|----------------|
|----------------|----------------|--------------7-|--6-7-6-7-6-7-6-|
|4-4-4-4-4-4-4-4-|4-4-4-4-4-4-4-4-|0-0-0-0-0-0-0---|----------------|

|----------------|----------------|
|----------------|----------------|
|----------------|--------9-------|
|9-7-----9-7-----|9-7-------7---77|

And again, I hope you can put the rest together cos I'm tired
(there are no new parts).
This is my own work.

Almost there ...

Sign in to get your own page with links to favourite songs and more. You are just one click away...

Login with Facebook Login with Google