Search tabs and chords

Search for song, artist or band

Log in

One click and you are in

Login with Facebook Login with Google

Why sign up and log in

Guitar Tabs Explorer
Nada Surf guitar tabs for Hollywood

Guitar tabs with lyrics

Artist : Nada Surf
Album  : High/Low
Song   : Hollywood

I'm just gonna write these as straight 8ths.  PLEASE listen to
the recording to get the proper rythmn/feel feel cos it sounds
nothing like this.

INTRO
gtrs. 1 & 2
||----------------|----------------|----------------|----------------|
||7-777-7-777-7---|5-555-5-555-5---|7-777-7-777-7---|5-555-5-555-5---|
||0-000-0-000-0---|0-000-0-000-0---|0-000-0-000-0---|0-000-0-000-0---|
||9-999-9-999-9---|7-777-7-777-7---|9-999-9-999-9---|7-777-7-777-7---|
||9-999-9-999-9---|7-777-7-777-7---|9-999-9-999-9---|7-777-7-777-7---|
||----------------|----------------|----------------|----------------|

|----------------|----------------|
|7-777-7-777-7---|5-5-8-5-8-5-8-5-|
|0-000-0-000-0---|0-0-0-0-0-0-0-0-|
|9-999-9-999-9---|7-7-7-7-7-7-7-7-|
|9-999-9-999-9---|7-7-7-7-7-7-7-7-|
|----------------|----------------|

VERSE (start singing on repeat)
play 3 times
|0---0-0---0-0-0-|0---0-0---0-0-0-|0---0-0---0-0---|0---0-0---0-0-0-| |
|0---0-0---0-0-1-|1---1-0---0-0-0-|0---0-0---0-0-0-|1---1-0---0-0-0-| |
|0---0-0---0-0-0-|0---0-0---0-0-0-|0---0-0---0-0-0-|0---0-0---0-0-0-|.|
|2---2-2---2-2-2-|2---2-2---2-2-2-|2---2-2---2-2-0-|2---2-2---2-2-2-|.|
|3---3-3---3-3-0-|0---0-0---0-0-0-|2---2-2---2-2-0-|0---0-0---0-0-0-| |
|----------------|----------------|0---0-0---0-0---|----------------| |

|----------------|----------------|
|7-7-7-7-7-7-7-7-|5-5-5-5-5-5-5-5-|
|0-0-0-0-0-0-0-0-|0-0-0-0-0-0-0-0-|
|9-9-9-9-9-9-9-9-|7-7-7-7-7-7-7-7-|
|9-9-9-9-9-9-9-9-|7-7-7-7-7-7-7-7-|
|----------------|----------------|

"the stars"
|0---0-0---0-0-0-|0---0-0---0-0-0-|0---0-0---0-0---|0---0-0---0-0-0-|
|0---0-0---0-0-1-|1---1-0---0-0-0-|0---0-0---0-0-0-|1---1-0---0-0-0-|
|0---0-0---0-0-0-|0---0-0---0-0-0-|0---0-0---0-0-0-|0---0-0---0-0-0-|
|2---2-2---2-2-2-|2---2-2---2-2-2-|2---2-2---2-2-0-|2---2-2---2-2-2-|
|3---3-3---3-3-0-|0---0-0---0-0-0-|2---2-2---2-2-0-|0---0-0---0-0-0-|
|----------------|----------------|0---0-0---0-0---|----------------|

"may sound nice..."
|----------------|----------------|
|7-7-7-7-7-7-7-7-|5-5-5-5-5-5-5-5-|
|0-0-0-0-0-0-0-0-|0-0-0-0-0-0-0-0-|
|9-9-9-9-9-9-9-9-|7-7-7-7-7-7-7-7-|
|9-9-9-9-9-9-9-9-|7-7-7-7-7-7-7-7-|
|----------------|----------------|

"...inside"                                          play twice
|0---0-0---0-0-0-|0---0-0---0-0-0-|0---0-0---0-0---|0---0-0---0-0-0-|
|0---0-0---0-0-1-|1---1-0---0-0-0-|0---0-0---0-0-0-|1---1-0---0-0-0-|
|0---0-0---0-0-0-|0---0-0---0-0-0-|0---0-0---0-0-0-|0---0-0---0-0-0-|
|2---2-2---2-2-2-|2---2-2---2-2-2-|2---2-2---2-2-0-|2---2-2---2-2-2-|
|3---3-3---3-3-0-|0---0-0---0-0-0-|2---2-2---2-2-0-|0---0-0---0-0-0-|
|----------------|----------------|0---0-0---0-0---|----------------|

"how do you..."
|----------------|----------------|
|7-7-7-7-7-7-7-7-|5-5-5-5-5-5-5-5-|
|0-0-0-0-0-0-0-0-|0-0-0-0-0-0-0-0-|
|9-9-9-9-9-9-9-9-|7-7-7-7-7-7-7-7-|
|9-9-9-9-9-9-9-9-|7-7-7-7-7-7-7-7-|
|----------------|----------------|

"...time.........around..."
|0---0-0---0-0-0-|0---0-0---0-0-0-|0---0-0---0-0---|0---0-0---0-0-0-|
|0---0-0---0-0-1-|1---1-0---0-0-0-|0---0-0---0-0-0-|1---1-0---0-0-0-|
|0---0-0---0-0-0-|0---0-0---0-0-0-|0---0-0---0-0-0-|0---0-0---0-0-0-|
|2---2-2---2-2-2-|2---2-2---2-2-2-|2---2-2---2-2-0-|2---2-2---2-2-2-|
|3---3-3---3-3-0-|0---0-0---0-0-0-|2---2-2---2-2-0-|0---0-0---0-0-0-|
|----------------|----------------|0---0-0---0-0---|----------------|
|                                                                   |
|gtr. 3                                                             |
|----------------|----------------|----------------|----------------|
|----------------|----------------|----------------|----------------|
|----------------|----------------|----------------|------------5/--|
|----------------|----------------|----------------|----------------|
|----------------|----------------|----------------|----------------|
|----------------|----------------|----------------|----------------|

NEXT PART

|----------------|----------------|----------------|----------------|
|7-7-7-7-7-7-7-7-|5-5-5-5-5-5-5-5-|7-7-7-7-7-7-7-7-|5-5-5-5-5-5-5-5-|
|0-0-0-0-0-0-0-0-|0-0-0-0-0-0-0-0-|0-0-0-0-0-0-0-0-|0-0-0-0-0-0-0-0-|
|9-9-9-9-9-9-9-9-|7-7-7-7-7-7-7-7-|9-9-9-9-9-9-9-9-|7-7-7-7-7-7-7-7-|
|9-9-9-9-9-9-9-9-|7-7-7-7-7-7-7-7-|9-9-9-9-9-9-9-9-|7-7-7-7-7-7-7-7-|
|----------------|----------------|----------------|----------------|
|                                                                   |
|                                                                   |
|----------------|----------------|----------------|----------------|
|----------------|----------------|----------------|----------------|
|12----------12/-|14----------14/-|16----------16/-|19-/19\-/19\----|
|----------------|----------------|----------------|----------------|
|----------------|----------------|----------------|----------------|
|----------------|----------------|----------------|----------------|

|----------------|----------------|
|7-7-7-7-7-7-7-7-|5-5-5-5-5-5-5-5-|
|0-0-0-0-0-0-0-0-|0-0-0-0-0-0-0-0-|
|9-9-9-9-9-9-9-9-|7-7-7-7-7-7-7-7-|
|9-9-9-9-9-9-9-9-|7-7-7-7-7-7-7-7-|
|----------------|----------------|
|                                 |
|                                 |
|----------------|----------------|
|----------------|----------------|
|21-bend---------|2121212121212121|
|----------------|----------------|
|----------------|----------------|
|----------------|----------------|
(These are 8th notes on 21.
These are still bent.
Gradually release while picking)

|0---0-0---0-0-0-|0---0-0---0-0-0-|0---0-0---0-0---|0---0-0---0-0-0-|
|0---0-0---0-0-1-|1---1-0---0-0-0-|0---0-0---0-0-0-|1---1-0---0-0-0-|
|0---0-0---0-0-0-|0---0-0---0-0-0-|0---0-0---0-0-0-|0---0-0---0-0-0-|
|2---2-2---2-2-2-|2---2-2---2-2-2-|2---2-2---2-2-0-|2---2-2---2-2-2-|
|3---3-3---3-3-0-|0---0-0---0-0-0-|2---2-2---2-2-0-|0---0-0---0-0-0-|
|----------------|----------------|0---0-0---0-0---|----------------|
|
|
|----------------|----------------|----------------|----------------|
|----------------|----------------|----------------|----------------|
|21--2121--212121|21\1919---191919|19\1616---161616|16\1414---141414|
|----------------|----------------|----------------|----------------|
|----------------|----------------|----------------|----------------|
|----------------|----------------|----------------|----------------|

BRIDGE
"been trying.....to feel..."                          play twice
|----------------|----------------|----------------|----------------|
|----------------|----------------|----------------|----------------|
|----------------|----------------|----------------|----------------|
|5-5-5-5-5-5-5-5-|2-2-2-2-2-2-2-2-|----------------|2-2-2-2-2-2-2-2-|
|3-3-3-3-3-3-3-3-|0-0-0-0-0-0-0-0-|2-2-2-2-2-2-2-2-|0-0-0-0-0-0-0-0-|
|----------------|----------------|0-0-0-0-0-0-0-0-|----------------|
|palm mute----------------------------------------------------------|


It's pretty easy to put the rest together.
This is my own work.

Almost there ...

Sign in to get your own page with links to favourite songs and more. You are just one click away...

Login with Facebook Login with Google