Search tabs and chords

Search for song, artist or band

Log in

One click and you are in

Login with Facebook Login with Google

Why sign up and log in

Guitar Tabs Explorer
Nada Surf bass tabs for Hollywood

Bass tabs

Artist : Nada Surf
Album  : High Low
Song   : Hollywood

BASS TAB

  ! = 12
  # = 14

  INTRO

|----------------|----------------|----------------|----------------|
|----------------|----------------|----------------|----------------|
|----------------|----------------|----------------|----------------|
|2-2-2-2-2-2-2-2-|0-0-0-0-0-0-0-0-|2-2-2-2-2-2-2-2/|!-!-!-!-!-!-!-!-|

|----------------|----------------|
|----------------|----------------|
|----------------|----------------|
|#-#-#-#-#-#-#-#-|!-!-!-!-!-!-!-!-|

VERSE
                                                          play twice
|----------------|----------------|----------------|----------------|
|----------------|----------------|2---------------|----------2-0---|
|3---------2-3-2-|0---------0-2-3-|----------2-3---|0-------------2-|
|----------------|----------------|----------------|----------------|

|----------------|----------------|----------------|----------------|
|----------------|----------------|2---------------|----------------|
|3---------2-3-2-|0---------0-2-3-|----------2-3---|0---------------|
|----------------|----------------|----------------|----------------|

   |----------------|----------------|
   |4-4-4-4-4-4-4-4-|2-2-2-2-2-2-2^0-|
   |----------------|----------------|
   |----------------|----------------|

    "the stars..."
|----------------|----------------|----------------|----------------|
|----------------|----------------|2---------------|----------------|
|3---------2-3-2-|0---------0-2-3-|----------2-3---|0---------------|
|----------------|----------------|----------------|----------------|

   "may sound nice..."

   |----------------|----------------|
   |4-4-4-4-4-4-4-4-|2-2/5\2/5\2-2^0-|
   |----------------|----------------|
   |----------------|----------------|

    "...inside"
|----------------|----------------|----------------|----------------|
|----------------|----------------|2---------------|----------2-0---|
|3---------2-3-2-|0---------0-2-3-|----------2-3---|0-------------2-|
|----------------|----------------|----------------|----------------|

|----------------|----------------|----------------|----------------|
|----------------|----------------|2---------------|----------------|
|3---------2-3-2-|0---------0-2-3-|----------2-3---|0---------------|
|----------------|----------------|----------------|----------------|

   ok ok.....I think you got the idea of this.  The only other part is the
BRIDGE:

|----------------|----------------|----------------|----------------|
|----------------|----------------|----------------|----------------|
|----------------|----------------|----------------|----------------|
|8-8-8-8-8-8-8-8-|5-5-5-5-5-5-5-5-|0-0-0-0-0-0-0-0-|5-5-5-5-5-5-5-5-|
|palm mute----------------------------------------------------------|

|----------------|----------------|----------------|----------------|
|----------------|----------------|----------------|----------------|
|----------------|----------------|----------------|----------------|
|8-888-8-888-8---|5-555-5-555-5---|0-000-0-000-0---|5-5-5-5-5-5-5-5-|

do more of a tremolo pick here
   do NOT mute on repeat

See guitar tab for more of an order.
This is my own work.

Almost there ...

Sign in to get your own page with links to favourite songs and more. You are just one click away...

Login with Facebook Login with Google