Log in

One click and you are in

Login with Facebook Login with Google

Why sign up and log in

Guitar Tabs Explorer
Nada Surf guitar tabs for Friend hospital

Guitar tabs

Capo 1
All tabs relative to Capo

Verses:
e|-------------------------0000--0--0--0--0----------------------|
B|-------------------------0000--0--0--0--0----------------------|
G|-------------------------0000--0--0--0--0----------------------|
D|10-10-10-9-7-------------xxxx--x--x--x--x----------------------|
A|-0--0--0-0-0-10-9-10--9--9999-10-10-10-10----------------------| Repeat as necessary throughout verses
E|--------------0-0--0--0--7777--8--8--8--8----------------------|
Chorus:
A chord diagramC/GC/G                       A chord diagramG MajorG
So much better that we're not together
      A chord diagramG MajorG          A chord diagramA minorAm
Cause I will not lose you
                A chord diagramC/GC/G
Or be the blues to you
                A chord diagramG MajorG
Friend Hospital
     A chord diagramA minorAm
Wild Sadness
 A chord diagramC/GC/G
New Weakness


Solo:
e|-----------------------------------------------5---------------|
B|-0--0--0--0--0--0--0--0--0-------------3-3-3----5--------------|
G|-3b-3b-3b-3b-3b-3b-3b-3b-3b--2p0-0-2/4-------4-----------------|
D|--------------------------------2------------------------------|
A|---------------------------------------------------------------|
E|---------------------------------------------------------------|

e|---------------------------------------------------------------|
B|-0--0--0--0--0--0--0--0--0-------------3--3--3--3--3--3--5--5--|
G|-3b-3b-3b-3b-3b-3b-3b-3b-3b-2p0--0-2/4-5b-5b-5b-5b-5b-5b-7b-7b-|
D|--------------------------------2------------------------------|
A|---------------------------------------------------------------|
E|---------------------------------------------------------------|

e|--------------------7/5------10-10-7-----15-14-15--------------|
B|-5--5--8-7-8------------8-7---------10-8----------15-17---15b--|
G|-7b-7b--------7-9---------------------------------------16---16|
D|------------------9--------------------------------------------|
A|---------------------------------------------------------------|
E|---------------------------------------------------------------|

e|---------------------------------------------------------------|
B|-15-15-17h20-18-17-17-17-17-17---------------------------------|
G|----------------19b19b19b19b19b--------------------------------|
D|---------------------------------------------------------------|
A|---------------------------------------------------------------|
E|---------------------------------------------------------------|

Other versions of Friend Hospital

Friend hospitalChords

Almost there ...

Sign in to get your own page with links to favourite songs and more. You are just one click away...

Login with Facebook Login with Google