Log in

One click and you are in

Login with Facebook Login with Google

Why sign up and log in

Guitar Tabs Explorer
Nada Surf guitar chords for Friend hospital

Guitar chords with lyrics

  • Capo on 1st
Tuning: Standard (E A D G B E)

Difficulty: Intermediate

Capo 1
All tabs relative to Capo
*This is more in line with the acoustic version that nada surf did in Paris (YouTube).
Modify as needed for whatever version you're doing.

Main tab to be repeated for each verse
e|-------------------------0000--0--0--0--0----------------------|
B|-------------------------0000--0--0--0--0----------------------|
G|-------------------------0000--0--0--0--0----------------------|
D|10-10-10-9-7-------------xxxx--x--x--x--x----------------------|
A|-0--0--0-0-0-10-9-10--9--9999-10-10-10-10----------------------|
E|--------------0-0--0--0--7777--8--8--8--8----------------------|

FRIEND HOSPITAL


Intro play TAB X 2


Verse 1:
N.C.
We are traveling daily by the hour
N.C.
Moods clouding mountains, ideas like towers
N.C.
Choosing sides, digging in, then changing
Hearts and mind are chafing from all the rearranging (HOLD)


Chorus:
A chord diagramC majorC                                 A chord diagramG MajorG
So much better that we're not together
            A chord diagramG MajorG           A chord diagramA minorAm
Cause I will not lose you
                   A chord diagramC/GC/G
Or be the blues to you
             A chord diagramG MajorG
Friend hospital
 A chord diagramG MajorG    A chord diagramA minorAm       A chord diagramC/GC/G
Wild sadness knew weakness
 A chord diagramG MajorG    A chord diagramA minorAm       A chord diagramC/GC/G
Wild sadness knew weakness

TAB X 2


Verse 2:
N.C.
I wish the sun would come through the walls
N.C.
And find you wherever when you call
N.C.
Give you the time and the will that you want
When you finally learn you can't always get what you haunt (HOLD)


Chorus:
A chord diagramC majorC                                  A chord diagramG MajorG
So much better that we're not together
            A chord diagramG MajorG           A chord diagramA minorAm
Cause I will not lose you
                   A chord diagramC/GC/G
Or be the blues to you
                   A chord diagramG MajorG
Friend hospital
A chord diagramG MajorG     A chord diagramA minorAm     A chord diagramC/GC/G
Wild sadness knew weakness
A chord diagramG MajorG      A chord diagramA minorAm     A chord diagramC/GC/G
Wild sadness knew weakness


solo:
 see bottom or replay verse tabs 3 times


SIDE NOTE C/G* ADD PINKY TO HIGH A chord diagramE MajorE


BRIDGE:
A chord diagramA minorAm    A chord diagramC/GC/G  C/G*            A chord diagramA minorAm
Awkward li-mo, fantastic cemetery
                           A chord diagramC/GC/G     C/G*
Reading from a list of your greatest hits
                             A chord diagramA minorAm
You're dropping them all the time
A chord diagramA minorAm                                 A chord diagramC/GC/G
It's like landing on my favorite planet
             C5/G     Cmaj9/E      A chord diagramA minorAm
When you're crackling through the line
                A chord diagramC/GC/G
So glad you called
                A chord diagramA minorAm
Sharp advice saves my life


Chorus:
A chord diagramC majorC                             A chord diagramG MajorG
So much better that we're not together
            A chord diagramG MajorG           A chord diagramA minorAm
Cause I will not lose you
                   A chord diagramC/GC/G
Or be the blues to you
                   A chord diagramG MajorG
Friend hospital
 A chord diagramG MajorG    A chord diagramA minorAm       A chord diagramC/GC/G
Wild sadness knew weakness
 A chord diagramG MajorG    A chord diagramA minorAm      A chord diagramC/GC/G
Wild sadness knew weakness


Solo:
before bridge
e|-----------------------------------------------5---------------|
B|-0--0--0--0--0--0--0--0--0-------------3-3-3----5--------------|
G|-3b-3b-3b-3b-3b-3b-3b-3b-3b--2p0-0-2/4-------4-----------------|
D|--------------------------------2------------------------------|
A|---------------------------------------------------------------|
E|---------------------------------------------------------------|

e|---------------------------------------------------------------|
B|-0--0--0--0--0--0--0--0--0-------------3--3--3--3--3--3--5--5--|
G|-3b-3b-3b-3b-3b-3b-3b-3b-3b-2p0--0-2/4-5b-5b-5b-5b-5b-5b-7b-7b-|
D|--------------------------------2------------------------------|
A|---------------------------------------------------------------|
E|---------------------------------------------------------------|

e|--------------------7/5------10-10-7-----15-14-15--------------|
B|-5--5--8-7-8------------8-7---------10-8----------15-17---15b--|
G|-7b-7b--------7-9---------------------------------------16---16|
D|------------------9--------------------------------------------|
A|---------------------------------------------------------------|
E|---------------------------------------------------------------|

e|---------------------------------------------------------------|
B|-15-15-17h20-18-17-17-17-17-17---------------------------------|
G|----------------19b19b19b19b19b--------------------------------|
D|---------------------------------------------------------------|
A|---------------------------------------------------------------|
E|---------------------------------------------------------------|


************************************

| x  Dead note
| p  Pull-off
| b  Bend
| /  Slide up
| h  Hammer-on

************************************

Other versions of Friend Hospital

FriendhospitalTabs

Almost there ...

Sign in to get your own page with links to favourite songs and more. You are just one click away...

Login with Facebook Login with Google