Search tabs and chords

Search for song, artist or band

Log in

One click and you are in

Login with Facebook Login with Google

Why sign up and log in

Guitar Tabs Explorer
Nada Surf guitar chords for Deeper well

Guitar chords

Artist : Nada Surf
Album  : High/Low
Song   : Deeper Well

INTRO
(play 6 times)
|----------| |----------------|----------------| |
|----------| |----------------|----------------| |
|--(fade)--|.|0-0-0-0---0-0---|0-0-0--00-0-0-0-|.|
|---(in)---|.|7-7-7-7---7-7---|7-7-7--77-7-7-7-|.|
|----------| |7-7-7-7---7-7---|7-7-7--77-7-7-7-| |
|----------| |5-5-5-5---5-5---|5-5-5--55-5-5-5-| |
band enter on 3rd repeat

(play 4 times)
| |----------------|----------------| |
| |----------------|----------------| |
|.|----------------|----------------|.|
|.|------5---x-7---|--7-7-7-7-7-7-7-|.|
| |7-7-7-3---x-5---|--5-5-5-5-5-5-5-| |
| |5-5-5-----------|----------------| |

VERSE
(play 8 times)
| |----------------|----------------| |
| |----------------|----------------| |
|.|----------------|--9-9-9-9-9-9-9-|.|
|.|------5---x-7---|--7-7-7-7-7-7-7-|.|
| |7-7-7-3---x-5---|--5-5-5-5-5-5-5-| |
| |5-5-5-----------|----------------| |

PRE-CHORUS

gtr. 1
| |----------------|----------------| |----------------|
| |----------------|----------------| |----------------|
|.|----------------|----------------|.|----------------|
|.|5---5---5-5-5-7-|----7---7-7-7---|.|--7-7-7-7-7-7---|
| |3---3---3-3-3-5-|----5---5-5-5---| |--5-5-5-5-5-5---|
| |----------------|----------------| |----------------|
|gtr. 2
| |----------------|----------------| |----------------|
| |----------------|----------------| |----------------|
|.|----7---7-7-----|----9---9-9-----|.|--9-9-9-9-9-9---|
|.|----x---x-x-----|----x---x-x-----|.|--x-x-x-x-x-x---|
| |----5---5-5-----|----7---7-7-----| |--7-7-7-7-7-7---|
| |----------------|----------------| |----------------|

CHORUS

D chord diagramDD             C chord diagramCC                G chord diagramGG                D chord diagramDD
|2---2---2-2-2-0-|----0---0-0-0-3-|----3---3-3-3-2-|
|3---3---3-3-3-1-|----1---1-1-1-3-|----3---3-3-3-3-|
|2---2---2-2-2-0-|----0---0-0-0-0-|----0---0-0-0-2-|
|0---0---0-0-0-2-|----2---2-2-2-0-|----0---0-0-0-0-|
|--------------3-|----3---3-3-3-2-|----2---2-2-2---|
|----------------|--------------3-|----3---3-3-3---|

C chord diagramCC                G chord diagramGG                D chord diagramDD
|----2---2-2-2-3-|----0---0-0-0-3-|----3---3-3-3-2-|
|----3---3-3-3-1-|----1---1-1-1-3-|----3---3-3-3-3-|
|----2---2-2-2-0-|----0---0-0-0-0-|----0---0-0-0-2-|
|----0---0-0-0-0-|----2---2-2-2-0-|----0---0-0-0-0-|
|--------------3-|----3---3-3-3-2-|----2---2-2-2---|
|----------------|--------------3-|----3---3-3-3---|

C chord diagramCC
|----2---2-2-2-0-|----0---0-0-0---|
|----3---3-3-3-1-|----1---1-1-1---|
|----2---2-2-2-0-|----0---0-0-0---|
|----0---0-0-0-2-|----2---2-2-2---|
|--------------3-|----3---3-3-3---|
|----------------|----------------|

go back to verse thingies...I don't know the solo parts.

BRIDGE

(power chords)

C chord diagramCC -> D chord diagramDD -> A chord diagramAA -> C chord diagramCC -> D chord diagramDD -> A chord diagramAA -> C chord diagramCC -> D chord diagramDD

Almost there ...

Sign in to get your own page with links to favourite songs and more. You are just one click away...

Login with Facebook Login with Google