Search tabs and chords

Search for song, artist or band

Log in

One click and you are in

Login with Facebook Login with Google

Why sign up and log in

Guitar Tabs Explorer
Nada Surf guitar tabs for Concrete bed

Guitar tabs

Tuning:standard

Intro
e|-------------------------------------------------------------------|
B|-7-5-5-7-5-5-7--5--7-5-5-7-5-5-7--7-0-0-7-0-0-7--0--7-0-0-7-0-0-7--|
G|-6-6-6-6-6-6-6--6--6-6-6-6-6-6-6--6-6-6-6-6-6-6--6--6-6-6-6-6-6-6--|
D|-7-7-7-7-7-7-7--7--7-7-7-7-7-7-7--7-7-7-7-7-7-7--7--7-7-7-7-7-7-7--|
A|----------------------------------6-6-6-6-6-6-6--6--6-6-6-6-6-6-6--|
E|-------------------------------------------------------------------|

e|-----------------------------------------------------------|
B|-7-0-0-7-0-0-7--0--7-0-0-7-0-0-7---------------------------|
G|-6-6-6-6-6-6-6--6--6-6-6-6-6-6-6--7-7-7-7-7-7-6-6-6-6-6-6--|
D|-7-7-7-7-7-7-7--7--7-7-7-7-7-7-7--7-7-7-7-7-7-7-7-7-7-7-7--|
A|-5-5-5-5-5-5-5--5--5-5-5-5-5-5-5--x-x-x-x-x-x-x-x-x-x-x-x--|
E|----------------------------------5-5-5-5-5-5-5-5-5-5-5-5--|
Verse (similar to the intro, with slight chord order changes)

e|-------------------------------------------------------------------|
B|-7-5-5-7-5-5-7--5--7-5-5-7-5-5-7--7-0-0-7-0-0-7--0--7-0-0-7-0-0-7--|
G|-6-6-6-6-6-6-6--6--6-6-6-6-6-6-6--6-6-6-6-6-6-6--6--6-6-6-6-6-6-6--|
D|-7-7-7-7-7-7-7--7--7-7-7-7-7-7-7--7-7-7-7-7-7-7--7--7-7-7-7-7-7-7--|
A|----------------------------------6-6-6-6-6-6-6--6--6-6-6-6-6-6-6--|
E|-------------------------------------------------------------------|

e|-------------------------------------------------------------------|
B|-7-5-5-7-5-5-7--5--7-5-5-7-5-5-7--7-0-0-7-0-0-7--0--7-0-0-7-0-0-7--|
G|-6-6-6-6-6-6-6--6--6-6-6-6-6-6-6--6-6-6-6-6-6-6--6--6-6-6-6-6-6-6--|
D|-7-7-7-7-7-7-7--7--7-7-7-7-7-7-7--7-7-7-7-7-7-7--7--7-7-7-7-7-7-7--|
A|----------------------------------6-6-6-6-6-6-6--6--5-5-5-5-5-5-5--|
E|-------------------------------------------------------------------|

e|-----------------------------------------|
B|-7-0-0-7-0-0-7---------------------------|
G|-6-6-6-6-6-6-6--7-7-7-7-7-7-6-6-6-6-6-6--|
D|-7-7-7-7-7-7-7--7-7-7-7-7-7-7-7-7-7-7-7--|
A|-5-5-5-5-5-5-5--x-x-x-x-x-x-x-x-x-x-x-x--|
E|----------------5-5-5-5-5-5-5-5-5-5-5-5--|

Chorus

Guitar 1

e|-0-0-0-0-0-0-0-0----------------------------------------------------|
B|-0-0-0-0-0-0-0-0--5-5-5-5-5-5-5-5--5-5-5-5-5-5-5-5--0-0-0-0-0-0-0-0-|
G|-2-2-2-2-2-2-2-2--6-6-6-6-6-6-6-6--7-7-7-7-7-7-7-7--7-7-7-7-7-7-7-7-|
D|-4-4-4-4-4-4-4-4--7-7-7-7-7-7-7-7--6-6-6-6-6-6-6-6--9-9-9-9-9-9-9-9-|
A|-4-4-4-4-4-4-4-4--7-7-7-7-7-7-7-7--7-7-7-7-7-7-7-7--9-9-9-9-9-9-9-9-|
E|--------------------------------------------------------------------|

Guitar 2

e|-5-5-5-5-5-5-5-5--9-9-9-9-9-9-9-9--7-7-7-7-7-7-7-7--7-7-7-7-7-7-7-7-|
B|-7-7-7-7-7-7-7-7--1010101010101010-9-9-9-9-9-9-9-9--7-7-7-7-7-7-7-7-|
G|-6-6-6-6-6-6-6-6--9-9-9-9-9-9-9-9--9-9-9-9-9-9-9-9--7-7-7-7-7-7-7-7-|
D|--------------------------------------------------------------------|
A|--------------------------------------------------------------------|
E|--------------------------------------------------------------------|


Bridge (slight chorus change)

e|----------------------------------------------------0-0-0-0-0-0--|
B|------------------5-5-5-5-5-5-5-5--5-5-5-5-5-5-5-5--0-0-0-0-0-0--|
G|------------------6-6-6-6-6-6-6-6--7-7-7-7-7-7-7-7--7-7-7-7-7-7--|
D|-4-4-4-4-4-4-4-4--7-7-7-7-7-7-7-7--6-6-6-6-6-6-6-6--9-9-9-9-9-9--|
A|-4-4-4-4-4-4-4-4--7-7-7-7-7-7-7-7--7-7-7-7-7-7-7-7--9-9-9-9-9-9--|
E|-2-2-2-2-2-2-0-2-------------------------------------------------|

The cool little lick at the bridge

e|--------------------------|
B|---------17---------------|
G|-16b(18)----(18)br16------|
D|---------------------16b--|
A|--------------------------|
E|--------------------------|


Ending

e|-0-0-0-0-0-0-0-0------------------------------------------------0--|
B|-0-0-0-0-0-0-0-0--5-5-5-5-5-5-5-5--5-5-5-5-5-5-5-5-5-5-5-5-5-5--5--|
G|-2-2-2-2-2-2-2-2--6-6-6-6-6-6-6-6--7-7-7-7-7-7-7-7-7-7-7-7-7-7--6--|
D|-4-4-4-4-4-4-4-4--7-7-7-7-7-7-7-7--6-6-6-6-6-6-6-6-6-6-6-6-6-6--7--|
A|-4-4-4-4-4-4-4-4--7-7-7-7-7-7-7-7--7-7-7-7-7-7-7-7-7-7-7-7-7-7--7--|
E|-------------------------------------------------------------------|



************************************

| /   slide up
| \   slide down
| h   hammer-on
| p   pull-off
| ~   vibrato
| +   harmonic
| x   Mute note
| b   Bend
| pb  Pre-bend
| br  Bend release
| pbr Pre-bend release
| brb Bend release bend

Other versions of Concrete Bed

Concrete bedChords

Almost there ...

Sign in to get your own page with links to favourite songs and more. You are just one click away...

Login with Facebook Login with Google