Search tabs and chords

Search for song, artist or band

Log in

One click and you are in

Login with Facebook Login with Google

Why sign up and log in

Guitar Tabs Explorer
Nada Surf bass tabs for Concrete bed

Bass tabs

Artist : Nada Surf
Song : Concrete Bed
Tuning : Standard ( D-G)
Natsuka
E-mail : nelson.gubler@gmail.com
Riff :


G|-------------------------------------------------------------------|
D|-------------------------------------------------------------------|
A|---------------------------------6-6-6-6-6-6-6-6-6-6-6-6-6-6-6-6---|
E|-5-5-5-5-5-5-5-5-5-5-5-5-5-5-5-5-----------------------------------|

G|---------------------------------------------------------------------|
D|---------------------------------------------------------------------|
A|-5-5-5-5-5-5-5-5-5-5-5-5-5-5-5-5-------------------------------------|
E|---------------------------------5-5-5-5-5-5-5-5-5-5-5-5-5-5-5-5-----|


G|-------------------------------------------------------------------|
D|-------------------------------------------------------------------|
A|---------------------------------6-6-6-6-6-6-6-6-6-6-6-6-6-6-6-6---|
E|-5-5-5-5-5-5-5-5-5-5-5-5-5-5-5-5-----------------------------------|

G|-----------------------------------------------------------------------|
D|-----------------------------------------------------------------------|
A|---------------------------------6-6-6-6-6-6-6-6-5-5-5-5-5-5-5-5-------|
E|-5-5-5-5-5-5-5-5-5-5-5-5-5-5-5-5---------------------------------------|

G|--------------------------------------------------------|
D|--------------------------------------------------------|
A|-5-5-5-5-5-5-5-5----------------------------------------|
E|-----------------5-5-5-5-5-5-5-5-5-5-5-5-5-5-5-5--------|

Chorus 1 :

G|----------------------------------------------------------------------|
D-----------------------------------------------------------------------|
A|-------------------0-0-0-0-0-0-0-0-----------------2-2-2-2-2-2-2-2----|
E|-2-2-2-2-2-2-2-2-2-----------------0-0-0-0-0-0-0-0--------------------|x2

Riff :

G|-------------------------------------------------------------------|
D|-------------------------------------------------------------------|
A|---------------------------------6-6-6-6-6-6-6-6-6-6-6-6-6-6-6-6---|
E|-5-5-5-5-5-5-5-5-5-5-5-5-5-5-5-5-----------------------------------|

G|---------------------------------------------------------------------|
D|---------------------------------------------------------------------|
A|-5-5-5-5-5-5-5-5-5-5-5-5-5-5-5-5-------------------------------------|
E|---------------------------------5-5-5-5-5-5-5-5-5-5-5-5-5-5-5-5-----|


G|-------------------------------------------------------------------|
D|-------------------------------------------------------------------|
A|---------------------------------6-6-6-6-6-6-6-6-6-6-6-6-6-6-6-6---|
E|-5-5-5-5-5-5-5-5-5-5-5-5-5-5-5-5-----------------------------------|

G|-----------------------------------------------------------------------|
D|-----------------------------------------------------------------------|
A|---------------------------------6-6-6-6-6-6-6-6-5-5-5-5-5-5-5-5-------|
E|-5-5-5-5-5-5-5-5-5-5-5-5-5-5-5-5---------------------------------------|

G|--------------------------------------------------------|
D|--------------------------------------------------------|
A|-5-5-5-5-5-5-5-5----------------------------------------|
E|-----------------5-5-5-5-5-5-5-5-5-5-5-5-5-5-5-5--------|

Chorus 1 :

G|--------------------------------------------------------------------|
D---------------------------------------------------------------------|
A|-----------------0-0-0-0-0-0-0-0-----------------2-2-2-2-2-2-2-2----|
E|-2-2-2-2-2-2-2-2-----------------0-0-0-0-0-0-0-0--------------------|x6

Chorus 2 : (need to be a bit faster for the "7-5" on the A string)

G|--------------------------------------------------------------------|
D|-4-4-4-4-4-4--------------------------------------------------------|
A|-------------7-5-----------------7-7-7-7-7-7-7----------------------|
E|-----------------5-5-5-5-5-5-5-7---------------5-7-7-7-7-7-7-7-7----|x2

End :

G|---------------------------------------------------------------------|
D----------------------------------------------------------------------|
A|-----------------0-0-0-0-0-0-0-0-----------------2-2-2-2-2-2-2-2-----|
E|-2-2-2-2-2-2-2-2-----------------0-0-0-0-0-0-0-0---------------------|

G|----------------------------------------------------------------------|
D-----------------------------------------------------------------------|
A|------------------0-0-0-0-0-0-0-0-----------------2-2-2-2-2-2-2-2-----|
E|-2-2-2-2-2-2-2-2------------------0-0-0-0-0-0-0-0---------------------|

G|----------------------------|
D|----------------------------|
A|-2-2-2-2-2-2-2-2-0~~--------|
E|----------------------------|
data-matched-content-ui-type="image_card_stacked"

Almost there ...

Sign in to get your own page with links to favourite songs and more. You are just one click away...

Login with Facebook Login with Google