Search tabs and chords

Search for song, artist or band

Log in

One click and you are in

Login with Facebook Login with Google

Why sign up and log in

Guitar Tabs Explorer
Nada Surf guitar tabs for Blue moon

Guitar tabs

C chord diagramCC  G chord diagramGG  Am chord diagramAmAm  Em chord diagramEmEm  F chord diagramFF  G chord diagramGG  Am chord diagramAmAm  F chord diagramFF


C chord diagramCC              G chord diagramGG
let me be your warm light
Am chord diagramAmAm              Em chord diagramEmEm
if you'd like a true heart
F chord diagramFF                G chord diagramGG
take the time to show your mind
Am chord diagramAmAm                    F chord diagramFF
i'll be the blue moon in the dark
while you sleep you'll see me there
clouds race across the sky
close your eyes don't ask why
i'll be the blue moon in your eyes


French horn solo:
C chord diagramCC         G chord diagramGG       Am chord diagramAmAm       Em chord diagramEmEm          F chord diagramFF       G chord diagramGG     Am chord diagramAmAm        F chord diagramFF
---------------------------------------------------------------------|
---------------------------------------------------------------------|
-5h7/9-10/12--4---5-5-4-2--0----------------2-----7--9-7-4h5-4-2--4--|
-----------------------------3-2---0-2h3-3-----5---------------------|
---------------------------------------------------------------------|
---------------------------------------------------------------------|

when morning comes and sleeping's done
birds sing outside
if the demons come while you're under
i'll be the blue moon in the sky

let me be your warm light
if you'd like a true heart
take the time and show your mind
i'll be the blue moon in the dark


C chord diagramCC  G chord diagramGG  G chord diagramGG  C chord diagramCC


chords:
C chord diagramCC   G chord diagramGG   Am chord diagramAmAm  Em chord diagramEmEm  F chord diagramFF
--0---3---0---0---1--|
--1---3---1---0---1--|
--0---0---2---0---2--|
--2---0---2---2---3--|
--3---2---0---2---3--|

Almost there ...

Sign in to get your own page with links to favourite songs and more. You are just one click away...

Login with Facebook Login with Google