Search tabs and chords

Search for song, artist or band

Log in

One click and you are in

Login with Facebook Login with Google

Why sign up and log in

Guitar Tabs Explorer
Nada Surf guitar chords for Blizzard of 77

Guitar chords with lyrics

BAND  :   NADASURF
SONG  :   Blizzard of '77
ALBUM :   LET GO

--------------------------------------------------------->TAB<--
Standard tuning.

]> First the 'CD-like' version... without capo

Verse :

e|5-5-5-5-5-0-0-0-|3-3-3-3-3-3-3-3-|1-1-1-1-1-1-1-1-|1-1-1-1-1-1-1-1-|
B|3-3-3-3-3-5-5-5-|6-6-6-5-5-5-5-5-|3-3-3-3-3-1-1-1-|1-1-1-1-1-1-1-1-|
G|3-3-3-3-3-0-0-0-|5-5-5-5-5-5-5-5-|3-3-3-3-3-3-3-3-|2-2-2-2-2-2-2-2-|
D|5-5-5-5-5-5-5-5-|5-5-5-5-5-5-5-5-|3-3-3-3-3-3-3-3-|3-3-3-3-3-3-3-3-|
A|5-5-5-5-5-3-3-3-|3-3-3-3-3-3-3-3-|1-1-1-1-1-1-1-1-|3-3-3-3-3-3-3-3-|
E|3-3-3-3-3-------|----------------|----------------|1-1-1-1-1-1-1-1-|

Chorus :

  Gmin             Fmaj             Bmaj
e|3-3-3-3-3-3-3-3-|1-1-1-1-1-1-1-1-|1-1-1-1-1-1-1-1-|
B|3-3-3-3-3-3-3-3-|1-1-1-1-1-1-1-1-|3-3-3-3-3-3-3-3-|
G|3-3-3-3-3-3-3-3-|2-2-2-2-2-2-2-2-|3-3-3-3-3-3-3-3*|
D|5-5-5-5-5-5-5-5-|3-3-3-3-3-3-3-3-|3-3-3-3-3-3-3-3*|
A|5-5-5-5-5-5-5-5-|3-3-3-3-3-3-3-3-|1-1-1-1-1-1-1-1-|
E|3-3-3-3-3-3-3-3-|1-1-1-1-1-1-1-1-|----------------| then Fmaj > Gmin > Fmaj

End on a A chord diagramBB

]> Then the 'CD-like' version... using capo on 3rd fret (easier to play)
   ! All chords are relative to the capo... !

Verse :
e|2-2-2-2-2-0-0-0-|0-0-0-0-0-0-0-0-|3-3-3-3-3-3-3-3-|2-2-2-2-2-2-2-2-|
B|0-0-0-0-0-2-2-2-|3-3-3-2-2-2-2-2-|0-0-0-0-0-0-0-0-|3-3-3-3-3-3-3-3-|
G|0-0-0-0-0-0-0-0-|2-2-2-2-2-2-2-2-|0-0-0-0-0-2-2-2-|2-2-2-2-2-2-2-2*|
D|2-2-2-2-2-2-2-2-|2-2-2-2-2-2-2-2-|0-0-0-0-0-0-0-0-|0-0-0-0-0-0-0-0*|
A|2-2-2-2-2-0-0-0-|0-0-0-0-0-0-0-0-|2-2-2-2-2-2-2-2-|0-0-0-0-0-0-0-0-|
E|0-0-0-0-0-------|----------------|3-3-3-3-3-3-3-3-|----------------|

Chorus :
e|0-0-0-0-0-0-0-0-|2-2-2-2-2-2-2-2-|3-3-3-3-3-3-3-3-|
B|0-0-0-0-0-0-0-0-|3-3-3-3-3-3-3-3-|0-0-0-0-0-0-0-0-|
G|0-0-0-0-0-0-0-0-|2-2-2-2-2-2-2-2-|0-0-0-0-0-0-0-0*|
D|2-2-2-2-2-2-2-2-|0-0-0-0-0-0-0-0-|0-0-0-0-0-0-0-0*|
A|2-2-2-2-2-2-2-2-|0-0-0-0-0-0-0-0-|2-2-2-2-2-2-2-2-|
E|0-0-0-0-0-0-0-0-|----------------|3-3-3-3-3-3-3-3-|

e|2-2-2-2-2-2-2-2-|0-0-0-0-0-0-0-0-|2-2-2-2-2-2-2-2-|
B|3-3-3-3-3-3-3-3-|0-0-0-0-0-0-0-0-|3-3-3-3-3-3-3-3-|
G|2-2-2-2-2-2-2-2-|0-0-0-0-0-0-0-0-|2-2-2-2-2-2-2-2-|
D|0-0-0-0-0-0-0-0-|2-2-2-2-2-2-2-2-|0-0-0-0-0-0-0-0-|
A|0-0-0-0-0-0-0-0-|2-2-2-2-2-2-2-2-|0-0-0-0-0-0-0-0-|
E|----------------|0-0-0-0-0-0-0-0-|----------------|

e|3-3-3-3-3-3-3-3-|2-2-2-2-2-2-2-2-|0-0-0-0-0-0-0-0-|2-2-2-2-2-2-2-2-|
B|0-0-0-0-0-0-0-0-|3-3-3-3-3-3-3-3-|0-0-0-0-0-0-0-0-|3-3-3-3-3-3-3-3-|
G|0-0-0-0-0-0-0-0-|2-2-2-2-2-2-2-2-|0-0-0-0-0-0-0-0-|2-2-2-2-2-2-2-2*|
D|0-0-0-0-0-0-0-0-|0-0-0-0-0-0-0-0-|2-2-2-2-2-2-2-2-|0-0-0-0-0-0-0-0*|
A|2-2-2-2-2-2-2-2-|0-0-0-0-0-0-0-0-|2-2-2-2-2-2-2-2-|0-0-0-0-0-0-0-0-|
E|3-3-3-3-3-3-3-3-|----------------|0-0-0-0-0-0-0-0-|----------------|

End on a "G"

]> Here is the way I saw nadasurf play Blizzard of 77' live...
   It's easier to play but you'll have to sing higher !
   In my view the best way to play Blizzard !

Verse :

e|7-7-7-7-7-0-0-0-|----------------|3-3-3-3-3-3-3-3-|3-3-3-3-3-3-3-3-|
B|0-0-0-0-0-7-7-7-|8-8-8-8-8-7-7-7-|5-5-5-5-5-3-3-3-|3-3-3-3-3-3-3-3-|
G|5-5-5-5-5-5-5-5-|7-7-7-7-7-7-7-7-|5-5-5-5-5-5-5-5-|4-4-4-4-4-4-4-4*|
D|7-7-7-7-7-7-7-7-|7-7-7-7-7-7-7-7-|5-5-5-5-5-5-5-5-|5-5-5-5-5-5-5-5*|
A|0-0-0-0-0-------|5-5-5-5-5-5-5-5-|3-3-3-3-3-3-3-3-|5-5-5-5-5-5-5-5-|
E|----------------|----------------|----------------|3-3-3-3-3-3-3-3-|

Chorus :

A chord diagramA minorAm > A chord diagramG MajorG > A chord diagramD MajorD then (only chord progression is written) :

e|0..-0..-0..--0..-|
B|1..-1..-1..--1..-|
G|0..-0..-2..--0..*|
D|2..-0..-2..--0..*|
A|3..-2..-0..--2..-|
E|-----------------| then end on A chord diagramD MajorD

This is my own work

------------------------------------------------------->Lyrics<--

Almost there ...

Sign in to get your own page with links to favourite songs and more. You are just one click away...

Login with Facebook Login with Google