Search tabs and chords

Search for song, artist or band

Log in

One click and you are in

Login with Facebook Login with Google

Why sign up and log in

Guitar Tabs Explorer
Nada Surf guitar tabs for Black and white

Guitar tabs

Here is my tab for the song Black & White by Nadasurf.
(NOTE: this song is a cover of the dB's by Nada Surf)

This tab is my own work.

Sincerly yours,
Bounav.
Song : Black & White
Band : Nada Surf

Tabber : bounav@free.fr

It's a dB's cover by Nadasurf.
____________________________________________________________________
-->Tab<----------------------------------------------------->Tab<---

Standart tuning.

Intro:
e|0-------------|0-------------|0-------------|0-------------|
B|2-------------|3-------------|3-------------|3-------------|
G|2-------------|2-------------|0-------------|2------------*|
D|2-------------|0-------------|2-------------|2------------*|
A|0-------------|0-------------|2-------------|0-------------|
E|--------------|--------------|0-------------|--------------| 2X

Preverse:
e|-------------------|-------------------|
B|---2-32----32-232--|---2-32----32-232--|
G|2---2--0-----2---2-|----2--------2----*|
D|-------------------|2------0----------*|
A|-------------------|-------------------|
E|-------------------|-------------------|

Verse:
e|0-------------|0-------------|0-------------|0-------------|
B|2-------------|3-------------|3-------------|3-------------|
G|2-------------|2-------------|0-------------|2------------*|
D|2-------------|0-------------|2-------------|2------------*|
A|0-------------|0-------------|2-------------|0-------------|
E|--------------|--------------|0-------------|--------------| 2X

Chorus: here we can ear Mattew's Rotosphere effect from Hugues&Kettner
e|----------|----------|----------|----------|
B|----------|----------|----------|----------|
G|-----777--|-----777--|----------|----------|
D|7-7--777--|7-7--777--|5-5--555-\|9-999999--|
A|7-7--555--|7-7--555--|5-5--555-\|9-999999--|
E|5-5-------|5-5-------|3-3--333-\|7-777777--|

e|----------|----------|----------|----------|----------|----------|
B|----------|----------|----------|----------|----------|----------|
G|-----777--|-----777--|----------|----------|5--555555-|7---------|
D|7-7--777--|7-7--777--|5-5--555--|5--555555-|5--555555-|7---------|
A|7-7--555--|7-7--555--|5-5--555--|5--555555-|3--333333-|5---------|
E|5-5-------|5-5-------|3-3--333--|2--222222-|----------|----------|

Play Pre-Verse and Verse

Chorus/solo :
e|----------|----------|
B|----------|----------|
G|-----777--|-----777--|
D|7-7--777--|7-7--777--|
A|7-7--555--|7-7--555--|
E|5-5-------|5-5-------|

e|-------------------------------------------------------------------|
B|------------------------------------12-12-14-14^--14^--14^--14^-14^|
G|--------------9-9-11-11-12-12-14-14--------------------------------|
D|9-11-11-12-12------------------------------------------------------|
A|-------------------------------------------------------------------|
E|-------------------------------------------------------------------|

e|------------------------------------------------|
B|15-15-14-14-12-12-------15-15-14-14-12-12-------|
G|------------------14-14-------------------14-14-|
D|------------------------------------------------|
A|------------------------------------------------|
E|------------------------------------------------|

e|------------------------------------------------|
B|13-13-12-12-------------------------------------|
G|------------14-14-12-12-15-15-14-14-12-12-11-11-|
D|------------------------------------------------|
A|------------------------------------------------|
E|------------------------------------------------|

e|------------------------------------------------------------|
B|------------------------------------------------------------|
G|------------------------------------------------------------|
D|-12-12-14-14-12-12-14-14-12-12-14-14-12-12-14-14-12-12-14-14|
A|------------------------------------------------------------|
E|------------------------------------------------------------|

Interlude:
e|---------|---------|---------|---------|---------|-------|
B|---------|---------|---------|---------|---------|-------|
G|---------|---------|55555555-|77-------|77-------|77-----|
D|55555555-|99999999-|55555555-|77-------|77-------|77-----|
A|55555555-|99999999-|33333333-|55-------|55-------|55-----|
E|33333333-|77777777-|---------|---------|---------|-------|
  \_Palm_Mute_________________/

Play pre-verse(many times to the following ending)

End :
e|---------|----------|----------|
B|---------|----------|----------|
G|-----777-|-----777--|----------|
D|7-7--777-|5-5--777--|7---------|
A|7-7--555-|5-5--555--|7---------|
E|5-5------|3-3-------|5---------|

It's my own work
____________________________________________________________________

Almost there ...

Sign in to get your own page with links to favourite songs and more. You are just one click away...

Login with Facebook Login with Google