Log in

One click and you are in

Login with Facebook Login with Google

Why sign up and log in

Guitar Tabs Explorer
Mystery Jets tabs for Young love

Guitar tabs with lyrics

Tabbed by Crubba

Right, so the other tab on here is lacking large sections so I thought I would try to
tab a more accurate version. Let me know if there's any problems or corrections.

Although there are only two guitar parts when played live, the recording has a third
guitar part. Guitars 1 and 2 are Will, Guitar 3 is Blaine.

From the album "Twenty One"
INTRO

Bass only - then:
Guitar 1 (palm muted)
E---------------------------------------------------------------------|
B---------------------------------------------------------------------|
G---------------------------------------------------------------------|
D-------2-----4-2-------2-----4-2-------2-----4-2h4p2-------2-----4-2-|
A---2-4-----2-------2-4-----2-------2-4-----2-----------2-4-----2-----|
E-0-------0-------0-------0-------0-------0-----------0-------0-------|


CHORUS 1

Guitar 1 (palm muted)
E-----------------------------------------------------------------|
B-----------------------------------------------------------------|
G-----------------------------------------------------------------|
D-------2-----4-2-------2-----4-2-------2-----4-2-------2-----4-2-| x4
A---2-4-----2-------2-4-----2-------2-4-----2-------2-4-----2-----|
E-0-------0-------0-------0-------0-------0-------0-------0-------|

Guitar 2
E-------------------------------9-7-5-|
B-------9-9---------------------9-7-5-|
G-------9-11-8-8h9p8------------9-8-6-|
D-----9---9--9-------9--------9---9-7-| x4
A--/11----11-9---------9---11-------7-|
E-0----------7----------/9----------5-|

VERSE 1

Guitar 1
E-------------------------------------------------|
B-------------------------------------------------|
G-----------------------------------------------1-|
D-2-2-2-------------------2-2-2-------------2-4---| x4
A-------4-2-----------2-4-------4-2---0--/4-------|
E-----------4-0---0-4---------------4-------------|


CHORUS 2

Guitar 1 (palm muted)
E-----------------------------------------------------------------|
B-----------------------------------------------------------------|
G-----------------------------------------------------------------|
D-------2-----4-2-------2-----4-2-------2-----4-2-------2-----4-2-| x4
A---2-4-----2-------2-4-----2-------2-4-----2-------2-4-----2-----|
E-0-------0-------0-------0-------0-------0-------0-------0-------|

Guitar 2
E-------------------------------9-7-5-|
B-------9-9---------------------9-7-5-|
G-------9-11-8-8h9p8------------9-8-6-|
D-----9---9--9-------9--------9---9-7-| x4
A--/11----11-9---------9---11-------7-|
E-0----------7----------/9----------5-|

Guitar 3 (with a reverb/tremolo effect)
E-----------------------------------5-|
B-----------------------------------5-|
G-----------------------------------6-|
D-----------------------------------7-| x4
A-----------------------------------7-|
E-----------------------------------5-|
Play the chord at the same time as the chord is played by Guitar 2 and let it ring.


BRIDGE

Guitar 3 (with reverb/tremolo effect)
E-9----9----2---2-|
B-9----9----2---2-|
G-9----9----2---2-|
D-11---11---4---4-| x2
A-11---11---4---4-|
E-9----9----2---2-|
This might sound a bit wrong but this is what he plays - the mixture of the effects
Blaine uses and the playing technique means that the chords are a bit obscured.


VERSE 2

Guitar 1
E-------------------------------------------------|
B-------------------------------------------------|
G-----------------------------------------------1-|
D-2-2-2-------------------2-2-2-------------2-4---| x4
A-------4-2-----------2-4-------4-2---0--/4-------|
E-----------4-0---0-4---------------4-------------|


CHORUS 3

Guitar 1 (palm muted)
E-----------------------------------------------------------------|
B-----------------------------------------------------------------|
G-----------------------------------------------------------------|
D-------2-----4-2-------2-----4-2-------2-----4-2-------2-----4-2-| x4
A---2-4-----2-------2-4-----2-------2-4-----2-------2-4-----2-----|
E-0-------0-------0-------0-------0-------0-------0-------0-------|

Guitar 2
E-------------------------------9-7-5-|
B-------9-9---------------------9-7-5-|
G-------9-11-8-8h9p8------------9-8-6-|
D-----9---9--9-------9--------9---9-7-| x4
A--/11----11-9---------9---11-------7-|
E-0----------7----------/9----------5-|

Guitar 3 (with a reverb/tremolo effect)
E-----------------------------------5-|
B-----------------------------------5-|
G-----------------------------------6-|
D-----------------------------------7-| x4
A-----------------------------------7-|
E-----------------------------------5-|


OUTRO

Guitar 2 (with a pitch-shifter effect 8ve+)
E---------------------------------------------------------|
B---5p4-5p4---5p4-5p4-5p4-5-----5p4-5p4---5p4-5p4-5p4-5---|
G---------------------------4-4-------------------------4-|
D---------------------------------------------------------| x4
A---------------------------------------------------------|
E---------------------------------------------------------|
It's possible that he's using a harmoniser set up an octave instead of just the
pitch-shifted tone but it's hard to tell because it's mixed quite quietly on the recording.

Guitar 3 (with reverb/tremolo effect)
E-9----9----2---2-|
B-9----9----2---2-|
G-9----9----2---2-|
D-11---11---4---4-| x4
A-11---11---4---4-|
E-9----9----2---2-|

then:
E-9---------------|
B-9---------------|
G-9---------------|
D-11---(feedback)-|
A-11--------------|
E-9---------------|

Other versions of Young Love

Young loveChords

Almost there ...

Sign in to get your own page with links to favourite songs and more. You are just one click away...

Login with Facebook Login with Google