Log in

One click and you are in

Login with Facebook Login with Google

Why sign up and log in

Guitar Tabs Explorer
Alannah Myles bass tabs for Love is

Bass tabs with lyrics

*** BASS ***

Tuning: E-A-D-G
Turn the treble all the way down.
Intro:
G||-------|-------|-------|-----------------------||
D||-------|-------|-------|--------------7/11--7--||
A||-------|-------|-------|-----------------------||
E||-------|-------|-------|-----------------------||

G||----------------------0-|-----0-------------------||
D||o--5---------2----------|--------0--0--2---------o||
A||o-------5---------------|------------------------o|| (2x)
E||------------------------|-------------------------||


Verse:
G||----------------------0-|-----0-------------------||
D||o--5---------2----------|--------0--0--2---------o||
A||o-------5---------------|------------------------o|| (4x)
E||------------------------|-------------------------||
Hard to get, impossible to hold,
straight as an arrow, like a burning fuse
In a long cold dawn, by the side of the road, a hopeless case, a perfect thing


Chorus 1:
G||----------------------0-|-----0-------------------||
D||o--5---------2----------|--------0--0--2---------o||
A||o-------5---------------|------------------------o|| (3x)
E||------------------------|-------------------------||
Love is (love is), what you want it to be
Love is (love is), heaven to the lonely
Show me what you want me to do,

G||--5----2----5----2----|--0----2----0----2----||
D||----------------------|----------------------||
A||----------------------|----------------------||
E||----------------------|----------------------||
‘cause love is what I got for you

G||----------------------0-|-----0-------------------||
D||o--5---------2----------|--------0--0--2---------o||
A||o-------5---------------|------------------------o|| (2x)
E||------------------------|-------------------------||

Verse:
I close my eyes, I search the stars,
cry for help, I wake up cold
You're in my system, under my skin,
raw emotion, please don't go


Chorus 1:
Love is (love is), what you want it to be
Love is (love is), heaven to the lonely
Show me what you want me to do,
‘cause love is what I got for you


Bridge:
G||--------------------------|-----------------1--4--6--|
D||--2--2--2--2--2--2--2--2--|--2--2--2--2--2-----------|
A||--------------------------|--------------------------|
E||--------------------------|--------------------------|
Can't live on promises, won't sleep with lies

--6--6--6--6--6--6--6--6--|--6--6--6--6--6--4--6-----|
--------------------------|-----------------------2--|
--------------------------|--------------------------|
--------------------------|--------------------------|
Don't understand the things you say, till I read 'em in your eyes

--------------------------|-----------------1--4--6--|
--2--2--2--2--2--2--2--2--|--2--2--2--2--2-----------|
--------------------------|--------------------------|
--------------------------|--------------------------|
Gotta run on instincts, gotta go by feel

--6--6--6--6--6--6--6--6--|--2----------------|-------------||
--------------------------|--------------------|-------------||
--------------------------|--------------------|-------------||
--------------------------|--------------------|-------------||
Gotta trust my senses, know if it's for real


Solo:
G||----------------------0-|-----0-------------------||
D||o--5---------2----------|--------0--0--2---------o||
A||o-------5---------------|------------------------o|| (3x)
E||------------------------|-------------------------||

G||--5----2----5----2----|--0----2----0----2----||
D||----------------------|----------------------||
A||----------------------|----------------------||
E||----------------------|----------------------||


Bridge:
Can't live on promises, won't sleep with lies
Don't understand the things you say, till I read 'em in your eyes
Gotta run on instincts, gotta go by feel
Gotta trust my senses


Chorus 2:
-------|-------|-------|-------|-------|-------|
-------|-------|-------|-------|-------|-------|
-------|-------|-------|-------|-------|-------|
-------|-------|-------|-------|-------|-------|
-------|-------|-------|-------|-------|-------|
-------|-------|-------|-------|-------|-------|
Love is (love is), what you want it to be
Love is (love is), heaven to the lonely
Show me what you want me to do,

--------|--0----2----0----2----||
--------|----------------------||
--------|----------------------||
--------|----------------------||
‘cause love is what I got for you


Chorus 1:
Love is (love is) (huh!)
(Love is) Love is
(Show me)
Whoooooho
(Love is)
(Love is)
(Show me) (fade out)

Almost there ...

Sign in to get your own page with links to favourite songs and more. You are just one click away...

Login with Facebook Login with Google