Log in

One click and you are in

Login with Facebook Login with Google

Why sign up and log in

Guitar Tabs Explorer
Alannah Myles bass tabs for Black velvet

Bass tabs with lyrics

Tune Down 1/2 Step = Eb Ab Db Gb

|-------|-----------------|-------------------|-----------------|--------------------|
|-------|-----------------|-------------------|-----------------|--------------------|
|-5-----|-----------------|-----------------5-|-----------------|-------------5------|
|---7-5-|-0-0-0-0-0-0-0-0-|-0-0-0-0-0-0-5-7---|-0-0-0-0-0-0-0-0-|-0-0-0-0-0-0---7-5--|
  4 + a                     1 + 2 + 3 + 4 + a

||------------------|-------------------|-----------------|------------------------|
||o-----------------|-------------------|-----------------|-----5---5-4---4-2------|
||o-----------------|-----------------5-|-----------------|-------5-----4-----2----|
||--0-0-0-0-0-0-0-0-|-0-0-0-0-0-0-5-7---|-0-0-0-0-0-0-0-0-|-0-0-----------------3--|
   Mmmmmm                         4 + a                     1 + 2 + a 3 + a 4 + a

|-----------------|-------------------|-----------------|--------------------|
|-----------------|-------------------|-----------------|--------------------|
|-----------------|-----------------5-|-----------------|-------------5------|
|-0-0-0-0-0-0-0-0-|-0-0-0-0-0-0-5-7---|-0-0-0-0-0-0-0-0-|-0-0-0-0-0-0---7-5--|
 Mississipi
 Up in Memphis


|-----------------|-------------------|-----------------|--------------------|
|-----------------|-------------------|-----------------|--------------------|
|-----------------|-----------------5-|-----------------|---------------0-1--|
|-0-0-0-0-0-0-0-0-|-0-0-0-0-0-0-5-7---|-0-0-0-0-0-0-0-0-|-0-0-0-0-0-0-3------|
  Mammas dancing
  Mammas babys

                                                        1 + 2 + 3 + a 4 + a
|-----------------|-----------------|-----------------|----------------------|
|-----------------|-----------------|-----------------|----------------------|
|-2-2-2-2-2-2-2-2-|-0-0-0-0-0-0-0-0-|-----------------|-5-5-5-5-5-------2-3--|
|-----------------|-----------------|-3-3-3-3-3-3-3-3-|-----------5-0-3------|
                                      Always wanting more

  $
|-----------------|-----------------|-----------------|--------------------|
|-----------------|-----------------|-----------------|--------------------|
|-0-0-0-0-0-0-0-0-|-5-5-5-5-5-5-5-3-|-0-0-0-0-0-0-0-0-|---------3-3-2-0----|
|-----------------|-----------------|-----------------|-1-1-1-1---------3--|
  Black Velvet                                                      4 + a

                                          1.          2.
                                  To Coda
|-----------------|-----------------------|------------||------------------|
|-----------------|-----------------------|-----------o||------------------|
|-0-0-0-0-0-0-0-0-|-5-5-5-5-5-5-5-5-------|-3----2----o||-3-3-3-3-2-2-2-2--|
|-----------------|-----------------------|------------||------------------|
 A new religion                                           Black velvet if you please


|-----------------|---------------------|-----------------|------------------|
|-----------------|---------------------|-----------------|------------------|
|-----------------|-----------0-2---0-2-|-0-0-0-0-0-0-0-0-|-2-2-2-2-2-2-2-2--|
|-0-0-0-0-0-0-0-0-|-0-0-0-0-3-----3-----|-----------------|------------------|
                            3 + a 4 + a   Every word


|-------------------|-------------------|-----------------|------------------|
|-------------------|-------------------|-----------------|------------------|
|-------------0-2---|---------------0-2-|-0-0-0-0-0-0-0-0-|------------------|
|-0-0-0-0-0-0-----3-|-0-0-0-0-0-0-3-----|-----------------|-1-1-1-1-1-1-1-1--|
              4 + a               4 + a  In a flash

               ~
|------------|------------||------------------|--------------------|
|------2--0--|------------||o-----------------|--------------------|
|-3----------|-2-----p(0)-||o-----------------|-----------------5--|
|------------|------------||--0-0-0-0-0-0-0-0-|-0-0-0-0-0-0-5-7----|
                           (Guitar Solo)


  1.                                      2.                      D.S. al Coda
|-----------------|--------------------||-----------------|-------------------|
|-----------------|-------------------o||-----------------|-------------------|
|-----------------|-------------5-----o||-----------------|---------------0-2-|
|-0-0-0-0-0-0-0-0-|-0-0-0-0-0-0---7-5--||-0-0-0-0-0-0-0-0-|-0-0-0-0-0-0-3-----|


 Coda &                     3 + a 4 + a
|-----------------|---------------------|-----------------|------------------|
|-----------------|---------------------|-----------------|------------------|
|-3-3-3-3-2-2-2-2-|-----------0-2---0-2-|-0-0-0-0-0-0-0-0-|-5-5-5-5-5-5-5-5--|
|-----------------|-0-0-0-0-3-----3-----|-----------------|------------------|
 black velvet if you please              Black velvet


|-----------------|-------------------|-----------------|-----------------|---------|
|-----------------|-------------------|-----------------|-----------------|---------|
|-0-0-0-0-0-0-0-0-|---------3-3-2-0---|-0-0-0-0-0-0-0-0-|-5-5-5-5-5-5-5-5-|-3----2--|
|-----------------|-1-1-1-1---------3-|-----------------|-----------------|---------|
                                        A new religion

||------------------|--------------------||-----------------|--------------------|
||o-----------------|-------------------o||-----------------|--------------------|
||o-----------------|-------------0-2---o||-----------------|---------------0-2--|
||--0-0-0-0-0-0-0-0-|-0-0-0-0-0-0-----3--||-0-0-0-0-0-0-0-0-|-0-0-0-0-0-0-0------|


|-----------------|---------------------|-----------------|--------------------|
|-----------------|---------------------|-----------------|--------------------|
|-----------------|---------0h5h7-5-----|-----------------|--------------------|
|-0-0-0-0-0-0-0-0-|-0-0-0-0---------7-5-|-0-0-0-0-0-0-0-0-|-0-0-0-0-0-0-0-5-7--|
                    1 + 2 + 3 + a 4 + a

|-----------------|-------------------|--|
|-----------------|-------------------|--|
|-----------------|-------------0-2---|--|
|-0-0-0-0-0-0-0-0-|-0-0-0-0-0-0-----3-|--|


 h  = hammer-on		 |  = bar
 p  = pull-off		||  = double bar
 b  = bend		||* = repeat start
 r  = bend release	*|| = repeat end
 /  = slide up/down	*|  = double bar (end)
[5] = nat. harmonic	 !  = repeat beat (ΒΌ,8th)
<5> = art. harmonic	!!  = repeat beat (16th)
 ~  = vibrato		 %  = repeat measure

this is good song, hear the song &play well

Other versions of Black Velvet

Black velvet 5 string bassBass tabs
Black velvet (Ver. 2)Bass tabs

Almost there ...

Sign in to get your own page with links to favourite songs and more. You are just one click away...

Login with Facebook Login with Google