Log in

One click and you are in

Login with Facebook Login with Google

Why sign up and log in

Guitar Tabs Explorer
Alannah Myles bass tabs for Black velvet   5 string bass

Black Velvet 5 String Bass bass tab by Alannah Myles

Alannah Myles bass tabs for Black velvet   5 string bass

Bass tabs with lyrics

5-String Bass Version Tuned B-E-A-D-G

|-------|-----------------|---------------------|-----------------|--------------------|
|-------|-----------------|---------------------|-----------------|--------------------|
|-4-----|-----------------|-------------------4-|-----------------|-------------4------|
|---6-4-|-----------------|-------------4--6----|-----------------|---------------6-4--|
|-------|-4-4-4-4-4-4-4-4-|-4-4-4-4-4-4---------|-4-4-4-4-4-4-4-4-|-4-4-4-4-4-4--------|
 Triplet          1 + 2 + 3 + Triplet                 Triplet

|------------------|-------------------|-----------------|-----------------------------|
|o-----------------|-------------------|-----------------|------------------8----------|
|o-----------------|-----------------4-|-----------------|-----9----9--8-------6-------|
|------------------|-0-0-0-0-0-0-4-6---|-----------------|-------9--------8-------6----|
|--4-4-4-4-4-4-4-4-|-------------------|-4-4-4-4-4-4-4-4-|-4-4-----------------------8-|
  Mmmmmm            Triplet          1 + Triplet Triplet Triplet

|-----------------|----------------------|-----------------|----------------------|
|-----------------|----------------------|-----------------|----------------------|
|-----------------|--------------------4-|-----------------|-------------4--------|
|-----------------|--------------4--6----|-----------------|----------------6--4--|
|-4-4-4-4-4-4-4-4-|-4-4-4-4-4-4----------|-4-4-4-4-4-4-4-4-|-4-4-4-4-4-4----------|
          1 + 2 + 3 + Triplet                 Triplet
 Mississipi


|-----------------|----------------------|-----------------|----------------------|
|-----------------|----------------------|-----------------|----------------------|
|-----------------|--------------------4-|-----------------|------------------0---|
|-----------------|--------------4--6----|-----------------|--------------2-4-----|
|-4-4-4-4-4-4-4-4-|-4-4-4-4-4-4----------|-4-4-4-4-4-4-4-4-|-4-4-4-4-4-4----------|
          1 + 2 + 3 + Triplet                 Triplet
 Mammas dancing

|-----------------|-----------------|-----------------|--------------------------|
|-----------------|-----------------|-----------------|--------------------------|
|-1-1-1-1-1-1-1-1-|-----------------|-----------------|-4-4-4-4-4----------1--2--|
|-----------------|-4-4-4-4-4-4-4-4-|-2-2-2-2-2-2-2-2-|------------4----2--------|
|-----------------|-----------------|-----------------|---------------4----------|
                            1 + 2 + Triplet Triplet
                   Always wanting more


|-----------------|-----------------|-----------------|----------------------|
|-----------------|-----------------|-----------------|----------------------|
|-----------------|-4-4-4-4-4-4-4-2-|-----------------|---------2-2-1--------|
|-4-4-4-4-4-4-4-4-|-----------------|-4-4-4-4-4-4-4-4-|-0-0-0-0--------4--2--|
|-----------------|-----------------|-----------------|----------------------|
 Black Velvet                           Triplet


|-----------------|-----------------------|------------|
|-----------------|-----------------------|-----------o|
|-----------------|-4-4-4-4-4-4-4-4-------|-2----1----o|
|-4-4-4-4-4-4-4-4-|-----------------------|------------|
|-----------------|-----------------------|------------|
 A new religion


|------------------|-------------------|-----------------|-----------------------------|
|o-----------------|-------------------|-----------------|------------------8----------|
|o-----------------|-----------------4-|-----------------|-----9----9--8-------6-------|
|------------------|-0-0-0-0-0-0-4-6---|-----------------|-------9--------8-------6----|
|--4-4-4-4-4-4-4-4-|-------------------|-4-4-4-4-4-4-4-4-|-4-4-----------------------8-|
  Mmmmmm            Triplet          1 + Triplet Triplet Triplet

|-----------------|----------------------|-----------------|----------------------|
|-----------------|----------------------|-----------------|----------------------|
|-----------------|--------------------4-|-----------------|-------------4--------|
|-----------------|--------------4--6----|-----------------|----------------6--4--|
|-4-4-4-4-4-4-4-4-|-4-4-4-4-4-4----------|-4-4-4-4-4-4-4-4-|-4-4-4-4-4-4----------|
          1 + 2 + 3 + Triplet                 Triplet
 Up in Memphis


|-----------------|----------------------|-----------------|----------------------|
|-----------------|----------------------|-----------------|----------------------|
|-----------------|--------------------4-|-----------------|------------------0---|
|-----------------|--------------4--6----|-----------------|--------------2-4-----|
|-4-4-4-4-4-4-4-4-|-4-4-4-4-4-4----------|-4-4-4-4-4-4-4-4-|-4-4-4-4-4-4----------|
          1 + 2 + 3 + Triplet                 Triplet
 Mammas babys

|-----------------|-----------------|-----------------|--------------------------|
|-----------------|-----------------|-----------------|--------------------------|
|-1-1-1-1-1-1-1-1-|-----------------|-----------------|-4-4-4-4-4----------1--2--|
|-----------------|-4-4-4-4-4-4-4-4-|-2-2-2-2-2-2-2-2-|------------4----2--------|
|-----------------|-----------------|-----------------|---------------4----------|
                            1 + 2 + Triplet Triplet
                   Always wanting more


|-----------------|-----------------|-----------------|----------------------|
|-----------------|-----------------|-----------------|----------------------|
|-----------------|-4-4-4-4-4-4-4-2-|-----------------|---------2-2-1--------|
|-4-4-4-4-4-4-4-4-|-----------------|-4-4-4-4-4-4-4-4-|-0-0-0-0--------4--2--|
|-----------------|-----------------|-----------------|----------------------|
 Black Velvet                           Triplet


|-----------------|-----------------------|------------------|
|-----------------|-----------------------|------------------|
|-----------------|-4-4-4-4-4-4-4-4-------|-2-2-2-2-1-1-1-1--|
|-4-4-4-4-4-4-4-4-|-----------------------|------------------|
|-----------------|-----------------------|------------------|
 A new religion              Black velvet if you please


|-----------------|-------------------------|-----------------|------------------|
|-----------------|-------------------------|-----------------|------------------|
|-----------------|---------------1-------1-|-----------------|-1-1-1-1-1-1-1-1--|
|-----------------|---------2--4----2--4----|-4-4-4-4-4-4-4-4-|------------------|
|-4-4-4-4-4-4-4-4-|-4-4-4-4-----------------|-----------------|------------------|
              Triplet Triplet  Every word


|---------------------|---------------------|-----------------|------------------|
|---------------------|---------------------|-----------------|------------------|
|-------------0--1----|-------------------1-|-----------------|------------------|
|-------------------2-|-------------2--4----|-4-4-4-4-4-4-4-4-|-0-0-0-0-0-0-0-0--|
|-4-4-4-4-4-4---------|-4-4-4-4-4-4---------|-----------------|------------------|
       Triplet        Triplet  In a flash

        ~
|------------|------------|------------------|---------------------|
|------1-----|------------|o-----------------|---------------------|
|-2-------4--|-1----------|o-----------------|-------------------4-|
|------------|-------p(4)-|------------------|-------------4--6----|
|------------|------------|--4-4-4-4-4-4-4-4-|-4-4-4-4-4-4---------|
              (Guitar Solo)          Triplet


|-----------------|---------------------|------------------|---------------------|
|-----------------|---------------------|o-----------------|---------------------|
|-----------------|-------------4-------|o-----------------|-------------------4-|
|-----------------|----------------6--4-|------------------|--------------4--6---|
|-4-4-4-4-4-4-4-4-|-4-4-4-4-4-4---------|--4-4-4-4-4-4-4-4-|-4-4-4-4-4-4---------|
                Triplet                  Triplet


|-----------------|---------------------|-----------------|---------------------|
|-----------------|---------------------|-----------------|---------------------|
|-----------------|-------------------1-|-2-2-2-2-1-1-1-1-|-------------1-----1-|
|-----------------|-------------2--4----|-----------------|---------2-4---2-4---|
|-4-4-4-4-4-4-4-4-|-4-4-4-4-4-4---------|-----------------|-4-4-4-4-------------|
                Triplet
                     black velvet if you please

|-----------------|------------------|-----------------|-------------------|
|-----------------|------------------|-----------------|-------------------|
|-----------------|-4-4-4-4-4-4-4-4--|-----------------|---------2-2-1-----|
|-4-4-4-4-4-4-4-4-|------------------|-4-4-4-4-4-4-4-4-|-0-0-0-0-------4-2-|
|-----------------|------------------|-----------------|-------------------|
 Black velvet


|-----------------|-----------------|---------|------------------|--------------------|
|-----------------|-----------------|---------|o-----------------|-------------------o|
|-----------------|-4-4-4-4-4-4-4-4-|-2----1--|o-----------------|---------------1---o|
|-4-4-4-4-4-4-4-4-|-----------------|---------|------------------|-0-0-0-0-0-0-4---2--|
|-----------------|-----------------|---------|--4-4-4-4-4-4-4-4-|-4-4-4-4-4-4--------|
 A new religion


|-----------------|----------------------|-----------------|------------------------|
|-----------------|----------------------|-----------------|------------------------|
|-----------------|-------------------1--|-----------------|-----------h4-h6-4------|
|-----------------|----------------4-----|-----------------|---------4---------6--4-|
|-4-4-4-4-4-4-4-4-|-4-4-4-4-4-4-4--------|-4-4-4-4-4-4-4-4-|-4-4-4-4----------------|
                Triplet               Triplet Triplet


|-----------------|----------------------|-----------------|---------------------|
|-----------------|----------------------|-----------------|---------------------|
|-----------------|----------------------|-----------------|----------------1----|
|-----------------|----------------4--6--|-----------------|-------------4-----2-|
|-4-4-4-4-4-4-4-4-|-4-4-4-4-4-4-4--------|-4-4-4-4-4-4-4-4-|-4-4-4-4-4-4---------|
          1 + 2 + 3 + Triplet                 Triplet

Almost there ...

Sign in to get your own page with links to favourite songs and more. You are just one click away...

Login with Facebook Login with Google