Log in

One click and you are in

Login with Facebook Login with Google

Why sign up and log in

Guitar Tabs Explorer
Meg Myers tabs for Poison

Guitar tabs

Album: Daughter In The Choir

Tabbed By: QotsaFreak7

Really awesome song! Maybe a little confusing but I included time stamps so you know
when to play what.


Intro and Verse (0:00-1:10) (1:31-2:00)

e--------------------------------------------------------|
B--------------------------------------------------------|
G-----------------------------8-8-8-8-8-8-8--------------|
D------5-5-5-5-5---5/8-(8)-8--8-8-8-8-8-8-8--------------|
A------5-5-5-5-5---5/8-(8)-8--6-6-6-6-6-6-6--------------|
E------3-3-3-3-3---3/6-(6)-6-----------------------------|


Pre-Chorus(1:11) (2:01)

e---------------|
B---------------|
G---------------|
D------5-5------|
A------5-5------|
E------3-3------|


Chorus (1:12-1:27) (2:03-2:17)

e-----------------------------------------|
B-----------------------------------------|
G---------------5-5-5-5--8-8-8-8----------|
D------5-5-5-5--5-5-5-5--8-8-8-8--8-8-8-8-| (X4)
A------5-5-5-5--3-3-3-3--6-6-6-6--8-8-8-8-|
E------3-3-3-3--------------------6-6-6-6-|

Post-Chorus (1:28-1:30)

e--------------------------------------------|
B--------------------------------------------|
G---------------8-8-8-8-----------5-5-5-5----|
D------5-5-5-5--8-8-8-8--8-8-8-8--5-3-3-3----|
A------5-5-5-5--6-6-6-6--8-8-8-8--3-3-3-3----|
E------3-3-3-3-----------6-6-6-6-------------|


Bridge

Lead Guitar(2:18-2:34)

e-----------------------------------------------------|
B-----------------------------------------------------|
G--12-12-12-7-8-8-8-(7)-(X3)--10-10-10-10-11-11-11-11-|
D-----------------------------------------------------| (X2)
A-----------------------------------------------------|
E-----------------------------------------------------|

Rhythm Guitar(2:18-2:34)

e-------------------------------------------------------|
B-------------------------------------------------------|
G---------------8-8-8-8-------10-10-10-10-11-11-11-11---|
D------5-5-5-5--8-8-8-8--(X3)-10-10-10-10-11-11-11-11---| (X2)
A------5-5-5-5--6-6-6-6-------8--8--8--8--9--9--9--9----|
E------3-3-3-3------------------------------------------|


Chorus (2:35-3:36)

e-----------------------------------------|
B-----------------------------------------|
G---------------5-5-5-5--8-8-8-8----------|
D------5-5-5-5--5-5-5-5--8-8-8-8--8-8-8-8-|
A------5-5-5-5--3-3-3-3--6-6-6-6--8-8-8-8-|
E------3-3-3-3--------------------6-6-6-6-|

End With Post-Chorus

Post-Chorus

e--------------------------------------------|
B--------------------------------------------|
G---------------8-8-8-8-----------5-5-5-5----|
D------5-5-5-5--8-8-8-8--8-8-8-8--5-3-3-3----|
A------5-5-5-5--6-6-6-6--8-8-8-8--3-3-3-3----|
E------3-3-3-3-----------6-6-6-6-------------|
ⓘ Guitar tab for 'Poison' by Meg Myers, a female alternative rock artist from USA. Meg Myers was born in 1986. Meg Myers is known for her angry music.

Almost there ...

Sign in to get your own page with links to favourite songs and more. You are just one click away...

Login with Facebook Login with Google