Log in

One click and you are in

Login with Facebook Login with Google

Why sign up and log in

Guitar Tabs Explorer
Meg Myers bass tabs for Numb

Bass tabs

Tuning: Standard (E A D G)

Difficulty: Novice


Intro: Starts at 0:03 (On official audio video)

G|-----------------------------------------|
D|-----------------------------------------|
A|---------5-5-5-5-------------------------| x4
E|-1-1-1-1---------5-5-5-5-5-5-5-5---------|


Verse: 0:27

G|-----------------------------------------|
D|-----------------------------------------|
A|---------5-5-5-5-------------------------| x8
E|-1-1-1-1---------5-5-5-5-5-5-5-5---------|


Chorus: 1:13

G|------------------------------------------|
D|------------------------------------------|
A|-1-1-1-1-----------------5-5-5-5----------|
E|---------1-1-1-1-5-5-5-5------------------|
                        x3
G|------------------------------------------|
D|------------------------------------------|
A|-1-1-1-1----------------------------------|
E|---------1-1-1-1-5-5-5-5-5-5-5-5----------|


Post-Chorus: 1:49

G|-----------------------------------------|
D|-----------------------------------------|
A|---------5-5-5-5-------------------------| x2
E|-1-1-1-1---------5-5-5-5-5-5-5-5---------|


Verse 2: 2:00

G|-----------------------------------------|
D|-----------------------------------------|
A|---------5-5-5-5-------------------------| x4
E|-1-1-1-1---------5-5-5-5-5-5-5-5---------|


Chorus 2: 2:23

G|------------------------------------------|
D|------------------------------------------|
A|-1-1-1-1-----------------5-5-5-5----------|
E|---------1-1-1-1-5-5-5-5------------------|
                        x3
G|------------------------------------------|
D|------------------------------------------|
A|-1-1-1-1----------------------------------|
E|---------1-1-1-1-5-5-5-5-5-5-5-5----------|


Bridge: 2:59

G|--------------------------------------------------------------------|
D|--------------------------------------------------------------------|
A|-------------7\-5-5-5-5-5-5-5--3\-1-1-1-1-1-1-1-1--3-3-3-3----------| x2
E|-1-1-1-1-1-1-----------------------------------------------5-5-5-5--|

G|------------------------------------------|
D|------------------------------------------|
A|-1-1-1-1-----------------5-5-5-5----------|
E|---------1-1-1-1-5-5-5-5------------------|

G|------------------------------------------|
D|------------------------------------------|
A|-1-1-1-1----------------------------------|
E|---------1-1-1-1-5-5-5-5-5-5-5-5----------|


Chorus 3: 3:34

G|------------------------------------------|
D|------------------------------------------|
A|-1-1-1-1-----------------5-5-5-5----------|
E|---------1-1-1-1-5-5-5-5------------------|
                       x3
G|------------------------------------------|
D|------------------------------------------|
A|-1-1-1-1----------------------------------|
E|---------1-1-1-1-5-5-5-5-5-5-5-5----------|


Outro: 4:15

G|------------------------------------------|
D|------------------------------------------|
A|-1-1-1-1-----------------5-5-5-5-5-5-5-5--|
E|---------1-1-1-1-5-5-5-5------------------|


\ - Slide Down
ⓘ Bass guitar tab for 'Numb' by Meg Myers, a female alternative rock artist from USA. Meg Myers was born in 1986. Meg Myers is known for her angry music.

Almost there ...

Sign in to get your own page with links to favourite songs and more. You are just one click away...

Login with Facebook Login with Google