Log in

One click and you are in

Login with Facebook Login with Google

Why sign up and log in

Guitar Tabs Explorer
Meg Myers bass tabs for Heart heart head

Bass tabs

  • Difficulty: Beginner
Tuning: Standard (E A D G)

0:22
G|---------------------|
D|---------------------|
A|---------------------|
E|-0----2--------------|
B|------------2--------|2X

0:38
G|-------------------------------------|
D|-------------------------------------|
A|-------------------------------------|
E|-4--------4--------4--------4--------|
B|-------------------------------------|

0:53
G|---------------------|
D|---------------------|
A|---------------------|
E|-0----9---------4----|
B|-----------4---------|4X

1:39
G|---------------------|
D|---------------------|
A|---------------------|
E|-0----2--------------|
B|------------2--------|2X

1:54
G|-------------------------------------|
D|-------------------------------------|
A|-------------------------------------|
E|-4--------4--------4--------4--------|
B|-------------------------------------|

2:10
G|---------------------|
D|---------------------|
A|---------------------|
E|-0----9---------4----|
B|-----------4---------|4X

2:48
G|---------------------|
D|---------------------|
A|---------------------|
E|-0----9---------4----|
B|-----------4---------|8X

3:50
G|---------------------|
D|---------------------|
A|---------------------|
E|-0---9---------4-----|
B|-----------4---------|2X

ⓘ Bass guitar tab for 'Heart Heart Head' by Meg Myers, a female alternative rock artist from USA. Meg Myers was born in 1986. Meg Myers is known for her angry music.

Almost there ...

Sign in to get your own page with links to favourite songs and more. You are just one click away...

Login with Facebook Login with Google