Log in

One click and you are in

Login with Facebook Login with Google

Why sign up and log in

Guitar Tabs Explorer
Meg Myers bass tabs for Adelaide

Bass tabs

verse
G|-------------------------|
D|-------------------------|
A|-------------3~~~~-------|
E|-5~~~~-1~~~~-------0~~~~-|2x

chorus
G|-----------------------------------------------------------------|
D|-----------------------------------------------------------------|
A|-------------------------------------------------3-3-3-3-3-3-3-3-|
E|-5-5-5-5-5-5-5-5-0-0-0-0-0-0-0-0-1-1-1-1-1-1-1-1-----------------|4x


verse
G|-----------------------------------------------------------------|
D|-----------------------------------------------------------------|
A|---------------------------------3-3-3-3-3-3-3-3-----------------|
E|-5-5-5-5-5-5-5-5-1-1-1-1-1-1-1-1-----------------0-0-0-0-0-0-0-0-|4x


chorus
G|-----------------------------------------------------------------|
D|-----------------------------------------------------------------|
A|-------------------------------------------------3-3-3-3-3-3-3-3-|
E|-5-5-5-5-5-5-5-5-0-0-0-0-0-0-0-0-1-1-1-1-1-1-1-1-----------------|4x


bridge
G|-------------------------------------------------|
D|-------------------------------------------------|
A|-3~~~~-5~~~~-------------------5~~~~-------------|
E|-------------5~~~~-8~~~~-1~~~~-------5~~~~-8~~~~-|

G|-----------------------------------------------------------------|
D|-----------------------------------------------------------------|
A|---------------------------------5-5-5-5-5-5-5-5-5-5-5-5-5-5-5-5-|
E|-1-1-1-1-1-1-1-1-1-1-1-1-1-1-1-1---------------------------------|

G|-----------------------------------------------------------------|
D|-----------------------------------------------------------------|
A|-----------------------------------------------------------------|
E|-5-5-5-5-5-5-5-5-5-5-5-5-5-5-5-5-8-8-8-8-8-8-8-8-8-8-8-8-8-8-8-8-|2x

G|-----------------------------------------------------------------|
D|-----------------------------------------------------------------|
A|---------------------------------5-5-5-5-5-5-5-5-5-5-5-5-5-5-5-5-|
E|-1-1-1-1-1-1-1-1-1-1-1-1-1-1-1-1---------------------------------|

G|------------------------------------|
D|------------------------------------|
A|------------------------------------|
E|-5-5-5-5-5-5-5-5-5-5-5-5-5-5-5-5-8~-|


chorus
G|-----------------------------------------------------------------|
D|-----------------------------------------------------------------|
A|-------------------------------------------------3-3-3-3-3-3-3-3-|

ⓘ Bass guitar tab for 'Adelaide' by Meg Myers, a female alternative rock artist from USA. Meg Myers was born in 1986. Meg Myers is known for her angry music.

Almost there ...

Sign in to get your own page with links to favourite songs and more. You are just one click away...

Login with Facebook Login with Google