Log in

One click and you are in

Login with Facebook Login with Google

Why sign up and log in

Guitar Tabs Explorer
My Vitriol tabs for Wait a minute

Guitar tabs

Band: My Vitriol

Tuning: Standard
Tabbed by: $@NDER
Intro
|----------------------------------------|
|-5-5-4-4-4------------------------------|
|-6-6-6-6-6------------------------------|
|-6-6-6-6-6-2-2-2-2-2--------------------|
|-4-4-4-4-4-2-2-2-2-2--------------------|
|-----------0-0-0-0-0--------------------|


Verse
|---------------------0-0-0-0-0-0-0-0-0-|
|---------------------0-0-0-0-0-0-0-0-0-|
|-6-6-6-6-6-----------2-2-2-2-2-2-2-2-2-|
|-6-6-6-6-6-2-2-2-2-2-2-2-2-2-2-2-2-2-2-|
|-4-4-4-4-4-2-2-2-2-2-0-0-0-0-0-0-0-0-0-|
|-----------0-0-0-0-0-------------------|

|---------------------0-0-0-0-0------------|
|---------------------0-0-0-0-0------------|
|-6-6-6-6-6-----------2-2-2-2-2-4-4-4-4-4--|
|-6-6-6-6-6-2-2-2-2-2-2-2-2-2-2-4-4-4-4-4--|
|-4-4-4-4-4-2-2-2-2-2-0-0-0-0-0-2-2-2-2-2--|
|-----------0-0-0-0-0----------------------|

"So you Think That you'll never get burned" Part
|-------------------------------------------------|
|-------------------------------------------------|
|-6-6-6-6-6-6-2-2-2-2-2-2-4-4-4-4-4-4-------------|
|-6-6-6-6-6-6-2-2-2-2-2-2-4-4-4-4-4-4-2-2-2-2-2-2-|
|-4-4-4-4-4-4-0-0-0-0-0-0-2-2-2-2-2-2-2-2-2-2-2-2-|
|-------------------------------------0-0-0-0-0-0-|
Wait a Minute
|-----------------------------------------|
|-5-5-5-5-5-5-5-5-5-5-5-5-5-5-5-5-5-5-5-5-|
|-6-6-6-6-6-6-6-6-6-6-6-6-6-6-6-6-6-6-6-6-|
|-6-6-6-6-6-6-6-6-6-6-6-6-6-6-6-6-6-6-6-6-|
|-4-4-4-4-4-4-4-4-4-4-4-4-4-4-4-4-4-4-4-4-|
|-----------------------------------------|
"So is it"
|-------------------------------------------------|
|-------------------------------------------------|
|-2-2-2-2-2-4-4-4-4-4-6-6-6-6-6-6-6-4-4-2-2-2-2-2-|
|-2-2-2-2-2-4-4-4-4-4-6-6-6-6-6-6-6-4-4-2-2-2-2-2-|
|-0-0-0-0-0-2-2-2-2-2-4-4-4-4-4-4-4-2-2-0-0-0-0-0-|
|-------------------------------------------------|

|----------------------------------------|
|----------------------------------------|
|-6-6-4-4-2-2-2-2-2----------------------|
|-6-6-4-4-2-2-2-2-2----------------------|
|-4-4-2-2-0-0-0-0-0----------------------|
|----------------------------------------|

Solo tremolo
|----------------------------------------|
|-5-5-5-5-5-5-5b7r5----------------------|
|-------------------2-2-2-2-2-2-2-2-2-2--|
|----------------------------------------|
|----------------------------------------|
|----------------------------------------|

Almost there ...

Sign in to get your own page with links to favourite songs and more. You are just one click away...

Login with Facebook Login with Google