Log in

One click and you are in

Login with Facebook Login with Google

Why sign up and log in

Guitar Tabs Explorer
My Vitriol tabs for Tongue tied

Guitar tabs

Band: My Vitriol

Tuning: Half step down (A chord diagramEb MajorEb A chord diagramAbAb A chord diagramDbDb A chord diagramGbGb A chord diagramBb majorBb A chord diagramEb MajorEb)
Tabbed By: $@NDER

Riff1
|----------------------------0------------|
|----------------------------0------------|
|-----5------5-------5-----5-5------------|
|-----5------5-------5-----5-5------------|
|-5-5---5-5-5--4-4-4--4-4-4--3------------|
|-----------------------------------------|
Play once then play this a couple of times

|---5-5-5--7---5-------------------------|
|---5-5-5----5---5-----------------------|
|---5-5----------------------------------|
|---5------------------------------------|
|-0--------------------------------------|
|----------------------------------------|
then play this once
|-----0------0-0---0-------------------------|
|-----0------0-0---0-------------------------|
|-----5------5-5---5-------------------------|
|-----5------5-5---5-------------------------|
|-5-5---5-5-5----3-3-------------------------|
|--------------------------------------------|

after that play this
|-7-7h8-8-7-7----------------------------|
|----------------------------------------|
|-------------9-9h10-10-9-9--------------|
|----------------------------------------|
|----------------------------------------|
|----------------------------------------|
After playing that twice play this

|------------------------0---------------|
|---10---10---12---10-10--10-------------|
|-9----9----9----9----9------------------|
|----------------------------------------|
|----------------------------------------|
|----------------------------------------|
End the first slow and hard part with this(I Think Seth plays this with a
slide)
|----------------------------------------|
|-13/12----------------------------------|
|----------------------------------------|
|----------------------------------------|
|----------------------------------------|
|----------------------------------------|

Loud part
|----------------------------------------|
|----------------------------------------|
|-----4-4-4-4-4h5-4----------------------|
|----------------------------------------|
|-0-0---------------7-7-7-7--------------|
|----------------------------------------|
After 2 times play this
|-------------------------------------------|
|-------------------------------------------|
|-------------------------------------------|
|-------------------------------------------|
|-8-8-8-8-8-8-5-5-5-5-5-5-5-6-7-0-0-0-0-0-0-|
|-------------------------------------------|

Almost there ...

Sign in to get your own page with links to favourite songs and more. You are just one click away...

Login with Facebook Login with Google