Log in

One click and you are in

Login with Facebook Login with Google

Why sign up and log in

Guitar Tabs Explorer
My Vitriol chords for Static

Guitar chords

Band: My Vitriol

Tuning: standard
Tabbed By: $@NDER

Bass Intro Everything  4 times
|--------------------------------------------|
|--------------------------------------------|
|--------------------------------------------|
|--------------------------------------------|
|--------------------------------------------|
|-2-3-5-2-0-2-5----2-3-5-2-0-0-0-0-----------|
Interlude
|-----0-0-0-0-0-0-0-----0-0-0-0-0-0-0--------|
|-----0-0-0-0-0-0-0-----0-0-0-0-0-0-0--------|
|-----2-2-2-2-2-2-2-----0-0-0-0-0-0-0--------|
|-----2-2-2-2-2-2-2-----2-2-2-2-2-2-2--------|
|-0-0-0-------------2-2-2-2-2-2-2-2-2--------|
|--------------------------------------------|

Verse
|-------------------------------------------------|
|-------------------------------------------------|
|-------------------------------------------------|
|-4-4-4-4-5-5-5-5-7-7-7-7-4-4-4-4-2-2-2-2-2-2-2-2-|
|-4-4-4-4-5-5-5-5-7-7-7-7-4-4-4-4-2-2-2-2-2-2-2-2-|
|-2-2-2-2-3-3-3-3-5-5-5-5-2-2-2-2-0-0-0-0-0-0-0-0-|

|-------------------------------------------------|
|-------------------------------------------------|
|-------------------------------------------------|
|-4-4-4-4-5-5-5-5-7-7-7-7-4-4-4-4-2-2-2-2-2-2-2-2-|
|-4-4-4-4-5-5-5-5-7-7-7-7-4-4-4-4-2-2-2-2-2-2-2-2-|
|-2-2-2-2-3-3-3-3-5-5-5-5-2-2-2-2-0-0-0-0-0-0-0-0-|

Chorus
|-------------------------------------------------|
|-------------------------------------------------|
|-4-4-4-4-4-4-------------------------2-2-2-2-2-2-|
|-4-4-4-4-4-4-4-4-4-4-4-4-2-2-2-2-2-2-2-2-2-2-2-2-|
|-2-2-2-2-2-2-4-4-4-4-4-4-2-2-2-2-2-2-0-0-0-0-0-0-|
|-------------2-2-2-2-2-2-0-0-0-0-0-0-------------|

During the aha( ) Part Just try to get feed back

The strumming isn't exactly right but it's close

Almost there ...

Sign in to get your own page with links to favourite songs and more. You are just one click away...

Login with Facebook Login with Google