Log in

One click and you are in

Login with Facebook Login with Google

Why sign up and log in

Guitar Tabs Explorer
My Vitriol chords for Cemented shoes

Guitar chords

Band: My Vitriol

Tuning: Standard
Tabbed By: $@NDER
Intro
e|-3-x-3-x-3-x-3-x-3-x-3-x-------3-3-3------3-3-3-----------|
A chord diagramBB|-4-x-4-x-4-x-3-x-3-x-3-x-------4-4-4------4-4-4-----------|
A chord diagramG+G|-5-x-5-x-5-x-5-x-5-x-5-x-------5-5-5------5-5-5-----------|
A chord diagramD MajorD|-5-x-5-x-5-x-5-x-5-x-5-x-------6-6-6------6-6-6-----------|
A chord diagramA augmentedA|-3-x-3-x-3-x-3-x-3-x-3-x-3-3-3------3-3-3-----------------|
A chord diagramE MajorE|-3-x-3-x-3-x-3-x-3-x-3-x-3-3-3------3-3-3-----------------|


Prechorus
|----------------------------------------|
|----------------------------------------|
|----------------------------------------|
|-4-4-4-4-6-6-6-6-6-6-6-6-6-6-6-6-6-6-6--|
|-4-4-4-4-6-6-6-6-6-6-6-6-6-6-6-6-6-6-6--|
|-2-2-2-2-4-4-4-4-4-4-4-4-4-4-4-4-4-4-4--|


Chorus
|----------------------------------------|
|----------------------------------------|
|-------------9--------------------------|
|-5-5-5-5-5-6-9-9-9-9-9-9-9-9-9-9-9------|
|-5-5-5-5-5-6-7-9-9-9-9-9-9-9-9-9-9------|
|-3-3-3-3-3-4---7-7-7-7-7-7-7-7-7-7------|


Bridge(Find your Way around these chords)
|-3--4--6--3--3--------------------------------|
|-4--4--6--3--3--------------------------------|
|-5--4--6--0--3--------------------------------|
|-5--6--8--0--5--------------------------------|
|-3--6--8--2--5--------------------------------|
|-3--4--6--3--3--------------------------------|


Solo
|-10-10-10-13-13-13-11-11-11-10-10-10-11-11-11-10-10-10--|
|--------------------------------------------------------|
|--------------------------------------------------------|
|--------------------------------------------------------|
|--------------------------------------------------------|
|--------------------------------------------------------|

The solo and the strumming are not correct and the bridge could be wrong but
I couldn't
Find anything better

Almost there ...

Sign in to get your own page with links to favourite songs and more. You are just one click away...

Login with Facebook Login with Google