Log in

One click and you are in

Login with Facebook Login with Google

Why sign up and log in

Guitar Tabs Explorer
My Friend Steve tabs for All in all

Guitar tabs with lyrics

"All in All" - My Friend Steve

Tabbed by: Jbob  jbob311@hotmail.com

Hey, this is my first posted tab.  Please email me with your thoughts,
praise, or additions.

This song has come to mean alot to me.  After spending countless hours
trying to find the tab with no results, I sat down and wrote it myself.
Here it is!

Intro - Strum each chord a few times,


        A chord diagramA augmentedA         E*         A chord diagramG+G          A chord diagramE MajorE
E------5--5-------4--------3--3-------0--0------------------------------
B------5--5-------5--------3--3-------0--0------------------------------
G------6--7-------4--------4--5-------1--2------------------------------
D------7--5-------6--------5--3-------2--0------------------------------
A------7--7-------7--------5--5-------2--2------------------------------
E------5--5-------4--------3--3-------0--0------------------------------

Played right before prechorus

E-----------------------------------------------------------------------
B-----------------------------------------------------------------------
G-----------------------7b----------------------------------------------
D----9---7-----6h7p6----------------------------------------------------
A-----------------------------------------------------------------------
E-----------------------------------------------------------------------


Prechorus- play intro chords twice each


Chorus- strum intro chords, at end of last line of chorus play A chord diagramE MajorE just once.


Played after first chorus

E-----------------------------------------------------------------------
B-----------------------------------------------------------------------
G----9---9--11--12-------------7---7--9--11-----------------------------
D------9------------9------------7-----------7--------------------------
A-----------------------------------------------------------------------
E-----------------------------------------------------------------------

"All in all" part- play the intro softly, it helps to shed a tear here.

Other versions of All In All

All in AllChords

Almost there ...

Sign in to get your own page with links to favourite songs and more. You are just one click away...

Login with Facebook Login with Google