Log in

One click and you are in

Login with Facebook Login with Google

Why sign up and log in

Guitar Tabs Explorer
My Chemical Romance chords for Romance ukulele

Romance Ukulele chords by My Chemical Romance

My Chemical Romance chords for Romance ukulele

Guitar chords

Tuning: G C E A (G C E A)

~Ukulele Tab~
*NOT IN ORIGINAL KEY*

Tuning: GCEA

A|-7--7--7--7--5--3--3--2--0--0--3--7--|
E|--0--0--0--0--0--0--0--0--0--0--0--0-|
C|---0--0--0--0--0--0--0--0--0--0--0--0|
G|-------------------------------------|

A|-12--12--12--12--10--8--8--7--5--5---|
E|---0---0---0---0---0--0--5--5--5--5--|
C|----0---0---0---0---0--0--5--5--5--5-|
G|-------------------------------------|

A|7--8--7--8--7--11--8--7--7--5--3--3--|
E|-5--5--7--7--7---7--7--7--0--0--0--0-|
C|--5--5--8--8--8---8--8--8--0--0--0--0|
G|-------------------------------------|

A|5--3--2--2--2--2--3--2--0--------0-|
E|-0--0--0--0--0--0--0--0----0-----0-|
C|--0--0--2--2--2--2--2--2------0--0-|
G|---------------------------------2-|

(Repeat Once)

ⓘ Guitar chords for 'Romance Ukulele' by My Chemical Romance, an alternative rock band formed in 2001 from New Jersey, USA. My Chemical Romance is known for their moody rock/pop music.

Almost there ...

Sign in to get your own page with links to favourite songs and more. You are just one click away...

Login with Facebook Login with Google