Log in

One click and you are in

Login with Facebook Login with Google

Why sign up and log in

Guitar Tabs Explorer
My Chemical Romance bass tabs for Kill all your friends complete

Kill All Your Friends Complete bass tab by My Chemical Romance

My Chemical Romance bass tabs for Kill all your friends complete

Bass tabs

Okay, ignore the "Kill All Your Friends Bass solo" one. This is the
COMPLETE bass line. As far as I know, it's all correct and even if it isn't,
it still works.

Tabbed by:Jacob

Tuning:Standard

G|----------------------------------|
D|---------------2------------------|
A|-------------5---2-2-2-2-3-3-3-5--|x6
E|-3-3-3-3-3-3----------------------|

G|----------------------------------|
D|---------------2------------------|
A|-------------5---2-2-2-2-3-3-3-5--|
E|-3---3~---3-----------------------|

G|----------------------------------|
D|---------------2------------------|
A|-------------5---2-2-2-2-3-3-3-5--|
E|-3-3-3-3-3-3----------------------|

G|----------------------------------|
D|---------------2------------------|
A|-------------5---2-2-2-2-3-3-3-5--|
E|-3---3~---3-----------------------|

G|---------------------------------------------------------------------|
D|---------------------------------------------------------------------|
A|-3-3-3-3-3-3-3-3--5-5-5-5-5-5-5-5-------------------2-2-2-2-2-2-2-2--|x2
E|-----------------------------------3-3-3-3-3-3-3-3-------------------|

G|-----------------------------------------------------------------------|
D|--------------------------------------------2---2----------------------|
A|-3-3-3-3-3-3-3-3--5-5-5-5-5-5-5-5-------------5-------2-2-2-2-2-2-2-2--|
E|-----------------------------------3-3-3-3---------3-------------------|

G|--------------------------|
D|---------2----------------|
A|-3-3-3-3---3-3-3--5---5~--|
E|--------------------------|

G|----------------------------------|
D|---------------2------------------|
A|-------------5---2-2-2-2-3-3-3-5--|x6 (The first two times is the bass solo)
E|-3-3-3-3-3-3----------------------|

G|----------------------------------|
D|---------------2------------------|
A|-------------5---2-2-2-2-3-3-3-5--|
E|-3---3~---3-----------------------|

G|----------------------------------|
D|---------------2------------------|
A|-------------5---2-2-2-2-3-3-3-5--|
E|-3-3-3-3-3-3----------------------|

G|----------------------------------|
D|---------------2------------------|
A|-------------5---2-2-2-2-3-3-3-5--|
E|-3---3~---3-----------------------|

G|--------------------------------------------------------------------|
D|--------------------------------------------------------------------|
A|-3-3-3-3-3-3-3-3--5-5-5-5-5-5-5-5-------------------2-2-2-2-2-2-2-2-|x3
E|-----------------------------------3-3-3-3-3-3-3-3------------------|

G|---------------------------|
D|---------------------------|
A|-3-3-3-3-3-3-3-3--5---5~---|
E|---------------------------|

(Pause for guitar)

G|---------------------------------------------------------------------|
D|-----------------------------------2-2-2-2-2-2-2-2-------------------|
A|------------------2-2-2-2-2-2-2-2-------------------5-5-5-5-5-5-5-5--|
E|-3-3-3-3-3-3-3-3-----------------------------------------------------|

G|---------------------------------------------------------------------|
D|-----------------------------------2-2-2-2-2-2-2-2--4-4-4-4-4-4-4-4--|
A|-3-3-3-3-3-3-3-3--5-5-5-5-5-5-5-5------------------------------------|x2
E|---------------------------------------------------------------------|

G|---------------------------------------------------------------------|
D|---------------------------------------------------------------------|
A|-3-3-3-3-3-3-3-3--5-5-5-5-5-5-5-5-------------------2-2-2-2-2-2-2-2--|x3
E|-----------------------------------3-3-3-3-3-3-3-3-------------------|

G|-------------------------------------------------|
D|-------------------------------------------------|
A|-3-3-3-3-3-3-3-3--5-5-5-5-5-5-5-5----------------|
E|-----------------------------------3~---2~---0~--|

G|--------------------------|
D|--------------------------|
A|-3-3-3-3-3-3-3-3--5---5~--|
E|--------------------------|

G|----------------------------------|
D|---------------2------------------|
A|-------------5---2-2-2-2-3-3-3-5--|
E|-3-3-3-3-3-3----------------------|

G|-------------------------------------|
D|---------------2---------------------|
A|-------------5---2-2-2-2-3-3-3-5-----|
E|-3-3-3-3-3-3---------------------3~--|

Almost there ...

Sign in to get your own page with links to favourite songs and more. You are just one click away...

Login with Facebook Login with Google