Log in

One click and you are in

Login with Facebook Login with Google

Why sign up and log in

Guitar Tabs Explorer
My Chemical Romance tabs for Its not a fashion statement its a fucking deathwish

Its Not A Fashion Statement Its A Fucking Deathwish tab by My Chemical Romance

My Chemical Romance tabs for Its not a fashion statement its a fucking deathwish

Guitar tabs with lyrics

Guitar 1:Ray Toro
Guitar 2:Frank Iero

(I'm not 100% sure about the muting and pauses in this song but it sounds kinda loose so you should be able
to mess with it and figure it out)
Intro Pt 1 (Guitar 1):

e:|-------------------------------------------------------------------------------------------------------|
B:|-------------------------------------------------------------------------------------------------------|
G:|-6-x-6-6-x-6--6--6-6--6-6-x-6-6--8--9--8--6--9-x-9-9--8--8--8-8--8-6-x-8--6--5-5--5-5------------------|
D:|-x-x-x-x-x-x--x--x-x--x-x-x-x-x--x--x--x--x--x-x-x-x--x--x--x-x--x-x-x-x--x--x-x--x-x------------------|
A:|-4-x-4-4-x-4--4--4-4--4-x-x-x-x--x--x--x--x--x-x-x-x--x--x--x-x--x-x-x-x--x--x-x--x-x------------------|
E:|------------------------5-x-5-5--5--5--5--5--7-x-7-7--7--7--7-7--7-4-x-4--4--4-4--4-4------------------|

e:|-------------------------------------------------------------------------------------|
B:|-------------------------------------------------------------------------------------|
G:|-6-x-6-6-x-6--6--6-6--6-6-x-6-6--8--9--8--6--9-x-9-9--8--8--8-8--8-------------------|
D:|-x-x-x-x-x-x--x--x-x--x-x-x-x-x--x--x--x--x--x-x-x-x--x--x--x-x--x-------------------|
A:|-4-x-4-4-x-4--4--4-4--4-x-x-x-x--x--x--x--x--x-x-x-x--x--x--x-x--x-------------------|
E:|------------------------5-x-5-5--5--5--5--5--7-x-7-7--7--7--7-7--7-------------------|

e:|------------------------------|
B:|------------------------------|
G:|------------------------------|
D:|-6-6-6-6-6-6-6-6-6-6-6-6-6--6-|
A:|-6-6-6-6-6-6-6-6-6-6-6-6-6--6-|
E:|-4-4-4-4-4-4-4-4-4-4-4-4-4--4-|
PM  * * * * * * * * * * * *


Intro Pt 2 (Guitar 1):

e:|-----------------------------------------------------------|
B:|-----------------------------------------------------------|
G:|-9-9-9-9-9-9-9-9-9-9-9-9-9-9-8/9-9-9-9-9-9-9-9-9-9-9-9-9-9-|
D:|-x-x-x-x-x-x-x-x-x-x-x-x-x-x-x-x-x-x-x-x-x-x-x-x-x-x-x-x-x-|
A:|-7-7-7-7-7-7-7-7-7-7-7-7-7-7-6/7-7-7-7-7-7-7-7-7-7-7-7-7-7-|
E:|-----------------------------------------------------------|

e:|-----------------------------------------------------------------|
B:|-----------------------------------------------------------------|
G:|-11/13-13-13-13-13-13-13-13-13-13-13-13-13-13-11/9-9-9-9-9-9-9-9-|
D:|--x-x--x--x--x--x--x--x--x--x--x--x--x--x--x---x-x-x-x-x-x-x-x-x-|
A:|--9/11-11-11-11-11-11-11-11-11-11-11-11-11-11--9/7-7-7-7-7-7-7-7-|
E:|-----------------------------------------------------------------|

e:|---------------------|
B:|---------------------|
G:|-11-11-11-11/8-8-8-8-|
D:|--x--x--x--x-x-x-x-x-|
A:|--9--9--9--9/6-6-6-6-|
E:|---------------------|


Intro Pt 2 (Guitar 2):
e:|------------------------------------------------------------|
B:|------------------------------------------------------------|
G:|-6-6-6-6-6-6-6-6-6-6-6-6-6-6-6-6-6-6-6-6-6-6-6-6-8--9--8--6-|
D:|-x-x-x-x-x-x-x-x-x-x-x-x-x-x-x-x-x-x-x-x-x-x-x-x-x--x--x--x-|
A:|-4-4-4-4-4-4-4-4-4-4-4-4-4-4-4-4-x-x-x-x-x-x-x-x-x--x--x--x-|
E:|---------------------------------5-5-5-5-5-5-5-5-5--5--5--5-|

e:|---------------------------------------------------------|
B:|---------------------------------------------------------|
G:|-9-9-9-9-9-9-9-9-8-8-8-8-8-8-8-8-6-6-6-6-8--6--5---------|
D:|-x-x-x-x-x-x-x-x-x-x-x-x-x-x-x-x-x-x-x-x-x--x--x---------|
A:|-x-x-x-x-x-x-x-x-x-x-x-x-x-x-x-x-x-x-x-x-x--x--x---------|
E:|-7-7-7-7-7-7-7-7-7-7-7-7-7-7-7-7-4-4-4-4-4--4--4---------|

Pre-Verse (Guitar 1):
e:|--------------------------------------------------------|
B:|--------------------------------------------------------|
G:|-6-x-6-6-x-6--6--6-6--6-9-x-9-9-x--13--13--13--13/14/13-|
D:|-x-x-x-x-x-x--x--x-x--x-x-x-x-x-x---x---x---x---x--x--x-|
A:|-4-x-4-4-x-4--4--4-4--4-7-x-7-7-x--11--11--11--11/12/11-|
E:|--------------------------------------------------------|

Pre-Verse (Guitar 2):
e:|--------------------------------------------------------|
B:|--------------------------------------------------------|
G:|------------------------6-x-6-6-x-----------------------|
D:|------------------------x-x-x-x-x-----------------------|
A:|------------------------4-x-4-4-x-----------------------|
E:|--------------------------------------------------------|

At the end of the pre-verse when guitar 1 plays the last slide guitar 2 does a slide up on the A chord diagramE MajorE string


Verse 1 Pt 1 (Guitar 1) (X2):
e:|-----------------------------------------------------------------|
B:|-----------------------------------------------------------------|
G:|-6-6-6-6-6-6-6-6-6-6-6-6-6-6-6-6---------------------------------|
D:|-6-6-6-6-6-6-6-6-6-6-6-6-6-6-6-6-7-7-7-7-7-7-7-7-7-7-7-7-7-7-7-7-|
A:|-4-4-4-4-4-4-4-4-4-4-4-4-4-4-4-4-7-7-7-7-7-7-7-7-7-7-7-7-7-7-7-7-|
E:|---------------------------------5-5-5-5-5-5-5-5-5-5-5-5-5-5-5-5-|

e:|-----------------------------------------------------------------|
B:|-----------------------------------------------------------------|
G:|-----------------------------------------------------------------|
D:|-9-9-9-9-9-9-9-9-9-9-9-9-9-9-9-9---------------------------------|
A:|-9-9-9-9-9-9-9-9-9-9-9-9-9-9-9-9-----6-----7-----9------6-----6--|
E:|-7-7-7-7-7-7-7-7-7-7-7-7-7-7-7-7-4-4---4-4---4-4----4-4---4-4----|
PM                                  * *   * *   * *    * *   * *


Verse 1 Pt 1 (Guitar 2) (X2):
e:|-----------------------------------------------------------------|
B:|-----------------------------------------------------------------|
G:|-6-6-6-6-6-6-6-6-6-6-6-6-6-6-6-6-6-6-6-6-6-6-6-6-8-8-9-9-8-8-6-6-|
D:|-x-x-x-x-x-x-x-x-x-x-x-x-x-x-x-x-x-x-x-x-x-x-x-x-x-x-x-x-x-x-x-x-|
A:|-4-4-4-4-4-4-4-4-4-4-4-4-4-4-4-4-x-x-x-x-x-x-x-x-x-x-x-x-x-x-x-x-|
E:|---------------------------------5-5-5-5-5-5-5-5-5-5-5-5-5-5-5-5-|

e:|---------------------------------------------------------------|
B:|---------------------------------------------------------------|
G:|-9-9-9-9-9-9-9-9-8-8-8-8-8-8-8-8-------------------------------|
D:|-x-x-x-x-x-x-x-x-x-x-x-x-x-x-x-x-------------------------------|
A:|-x-x-x-x-x-x-x-x-x-x-x-x-x-x-x-x-----6-----7-----9-----6-----6-|
E:|-7-7-7-7-7-7-7-7-7-7-7-7-7-7-7-7-4-4---4-4---4-4---4-4---4-4---|
PM                                  * *   * *   * *   * *   * *


Verse 1 Pt 2 (Guitar 1):
e:|-----------------------------------------------------------------|
B:|-----------------------------------------------------------------|
G:|-----------------------------------------------------------------|
D:|-7-7-7-7-7-7-7-7-7-7-7-7-7-7-7-7-9-9-9-9-9-9-9-9-9-9-9-9-9-9-9-9-|
A:|-7-7-7-7-7-7-7-7-7-7-7-7-7-7-7-7-9-9-9-9-9-9-9-9-9-9-9-9-9-9-9-9-|
E:|-5-5-5-5-5-5-5-5-5-5-5-5-5-5-5-5-7-7-7-7-7-7-7-7-7-7-7-7-7-7-7-7-|

e:|-----------------------------------------------------------------|
B:|-----------------------------------------------------------------|
G:|-----------------------------------------------------------------|
D:|-6-6-6-6-6-6-6-6-6-6-6-6-6-6-6-6-7-7-7-7-7-7-7-7-6-6-4-4-2-2-2-2-|
A:|-6-6-6-6-6-6-6-6-6-6-6-6-6-6-6-6-7-7-7-7-7-7-7-7-7-7-4-4-2-2-2-2-|
E:|-4-4-4-4-4-4-4-4-4-4-4-4-4-4-4-4-5-5-5-5-5-5-5-5-4-4-2-2-0-0-0-0-|


Verse 1 Pt 2 (Guitar 2):
e:|-----------------------------------------------------------------|
B:|-----------------------------------------------------------------|
G:|-----------------------------------------------------------------|
D:|-7-7-7-7-7-7-7-7-7-7-7-7-7-7-7-7-9-9-9-9-9-9-9-9-9-9-9-9-9-9-9-9-|
A:|-7-7-7-7-7-7-7-7-7-7-7-7-7-7-7-7-9-9-9-9-9-9-9-9-9-9-9-9-9-9-9-9-|
E:|-5-5-5-5-5-5-5-5-5-5-5-5-5-5-5-5-7-7-7-7-7-7-7-7-7-7-7-7-7-7-7-7-|

e:|-----------------------------------------------------------------|
B:|-----------------------------------------------------------------|
G:|-----------------------------------------------------------------|
D:|-6-6-6-6-6-6-6-6-6-6-6-6-6-6-6-6-7-7-7-7-7-7-7-7-7-7-7-7-7-7-7-7-|
A:|-6-6-6-6-6-6-6-6-6-6-6-6-6-6-6-6-7-7-7-7-7-7-7-7-7-7-7-7-7-7-7-7-|
E:|-4-4-4-4-4-4-4-4-4-4-4-4-4-4-4-4-5-5-5-5-5-5-5-5-5-5-5-5-5-5-5-5-|


Pre-Chorus (Guitar 1):
e:|-----------------------------------------------------------------|
B:|-----------------------------------------------------------------|
G:|-6-6-6-6-6-6-6-6/8-8-8-8/9-9-9-9-4-4-4-4-4-4-4-4/8-8-8-8/9-9-9-9-|
D:|-x-x-x-x-x-x-x-x-x-x-x-x-x-x-x-x-x-x-x-x-x-x-x-x-x-x-x-x-x-x-x-x-|
A:|-4-4-4-4-4-4-4-4/6-6-6-6/7-7-7-7-2-2-2-2-2-2-2-2/6-6-6-6/7-7-7-7-|
E:|-----------------------------------------------------------------|

e:|--------------------------------------------------------------|
B:|--------------------------------------------------------------|
G:|--------------------------------------------------------------|
D:|-6-6-6-6-6-6-6-6-6-6-6-6-6-6-6-6-6-7-9-11-11/9-6/7--------7-9-|
A:|-6-6-6-6-6-6-6-6-6-6-6-6-6-6-6-6-x-x-x--x--x-x-x-x--------7-9-|
E:|-4-4-4-4-4-4-4-4-4-4-4-4-4-4-4-4-4-5-7--9--9/7-4/5--------5-7-|

e:|---------------------------------|
B:|---------------------------------|
G:|---------------------------------|
D:|---------------------------------|
A:|---------------------------------|
E:|-//////////Pick-Scrape\\\\\\\\\\-|


Pre-Chorus (Guitar 2):
e:|-----------------------------------------------------------------|
B:|-----------------------------------------------------------------|
G:|-6-6-6-6-6-6-6-6-6-6-6-6-6-6-6-6-4-4-4-4-4-4-4-4-4-4-4-4-4-4-4-4-|
D:|-6-6-6-6-6-6-6-6-6-6-6-6-6-6-6-6-4-4-4-4-4-4-4-4-4-4-4-4-4-4-4-4-|
A:|-4-4-4-4-4-4-4-4-4-4-4-4-4-4-4-4-2-2-2-2-2-2-2-2-2-2-2-2-2-2-2-2-|
E:|-----------------------------------------------------------------|

e:|-------------------------------------------------------------|
B:|-------------------------------------------------------------|
G:|-------------------------------------------------------------|
D:|-6-6-6-6-6-6-6-6-6-6-6-6-6-6-6-6-6-7-6-7-6/7\6-7---------7-9-|
A:|-6-6-6-6-6-6-6-6-6-6-6-6-6-6-6-6-x-x-x-x-x-x-x-7---------7-9-|
E:|-4-4-4-4-4-4-4-4-4-4-4-4-4-4-4-4-4-5-4-5-4/5\4-5---------5-7-|

e:|---------------------------------|
B:|---------------------------------|
G:|---------------------------------|
D:|---------------------------------|
A:|---------------------------------|
E:|-//////////Pick-Scrape\\\\\\\\\\-|


Chorus thing:
(Guitar 1)
e:|-----------------------------------------------------------------|
B:|-----------------------------------------------------------------|
G:|-9-9-9-9-9-9-9-9/8-8-8-8-8-8-8-8/6-6-6-6-6-6-6-6-6-6-6-6-6-6-6-6-|
D:|-x-x-x-x-x-x-x-x-x-x-x-x-x-x-x-x-x-x-x-x-x-x-x-x-x-x-x-x-x-x-x-x-|
A:|-7-7-7-7-7-7-7-7/6-6-6-6-6-6-6-6/4-4-4-4-4-4-4-4-4-4-4-4-4-4-4-4-|
E:|-----------------------------------------------------------------|

e:|-------------------------------------------------------------|
B:|-4h5-5-4h5-5-4h5-5-5p4p0-4h5-5-4h5-5-4h5-5-5h7p5p4p0---------|
G:|-------------------------------------------------------------|
D:|-------------------------------------------------------------|
A:|-------------------------------------------------------------|
E:|-------------------------------------------------------------|

e:|---------------------------------------------------------|
B:|---------------------------------------------------------|
G:|-9-9-9-9-9-9-9-9/8-8-8-8-8-8-8-8-6-x-6-6-x-6--6--6-6-----|
D:|-x-x-x-x-x-x-x-x-x-x-x-x-x-x-x-x-x-x-x-x-x-x--x--x-x-----|
A:|-7-7-7-7-7-7-7-7/6-6-6-6-6-6-6-6-4-x-4-4-x-4--4--4-4-----|
E:|---------------------------------------------------------|

e:|-----------------------------------------------------------------|
B:|-----------------------------------------------------------------|
G:|-----------------------------------------------------------------|
D:|-7-7-7-7-7-7-7-7-7-7-7-7-7-7-7-7-9-9-9-9-9-9-9-9-----------------|
A:|-7-7-7-7-7-7-7-7-7-7-7-7-7-7-7-7-9-9-9-9-9-9-9-9-9-9-9-9-9-9-9-9-|
E:|-5-5-5-5-5-5-5-5-5-5-5-5-5-5-5-5-7-7-7-7-7-7-7-7-7-7-7-7-7-7-6-6-|
PM                                                  * * * * * * * *


Chorus thing:
(Guitar 2)
e:|---------------------------------------------------------------------------|
B:|---------------------------------------------------------------------------|
G:|-9-9-9-9-9-9-9-9/11-11-11-11-9-9/11-11/13-13-13-13-13-13-13/14-13--11------|
D:|-x-x-x-x-x-x-x-x--x--x--x--x-x-x--x--x--x--x--x--x--x--x--x--x--x---x------|
A:|-7-7-7-7-7-7-7-7/-9--9--9--9-7-7/-9--9/11-11-11-11-11-11-11/12-11---9------|
E:|---------------------------------------------------------------------------|

e:|---------------------------------------------------------------------------------|
B:|---------------------------------------------------------------------------------|
G:|-9-9-9-9-9-9-9-9-9-9-9-9-9-9-9-9/11-11-11-11-11-11-11-11-11-11-11-11-11-11-11-11-|
D:|-x-x-x-x-x-x-x-x-x-x-x-x-x-x-x-x--x--x--x--x--x--x--x--x--x--x--x--x--x--x--x--x-|
A:|-7-7-7-7-7-7-7-7-7-7-7-7-7-7-7-7/-9--9--9--9--9--9--9--9--9--9--9--9--9--9--9--9-|
E:|---------------------------------------------------------------------------------|

e:|-----------------------------------------------------------------|
B:|-----------------------------------------------------------------|
G:|-9-9-9-9-9-9-9-9/11-11-11-11/13-13/11-11-9-x-9-9-x-9--9--9-9-----|
D:|-x-x-x-x-x-x-x-x--x--x--x--x--x-x--x--x--x-x-x-x-x-x--x--x-x-----|
A:|-7-7-7-7-7-7-7-7/-9--9--9--9/11-11/9--9--7-x-7-7-x-7--7--7-7-----|
E:|-----------------------------------------------------------------|

e:|-----------------------------------------------------------------|
B:|-----------------------------------------------------------------|
G:|-----------------------------------------------------------------|
D:|-7-7-7-7-7-7-7-7-7-7-7-7-7-7-7-7-9-9-9-9-9-9-9-9-----------------|
A:|-7-7-7-7-7-7-7-7-7-7-7-7-7-7-7-7-9-9-9-9-9-9-9-9-9-9-9-9-9-9-9-9-|
E:|-5-5-5-5-5-5-5-5-5-5-5-5-5-5-5-5-7-7-7-7-7-7-7-7-7-7-7-7-7-7-6-6-|
PM                                                  * * * * * * * *

Repeat Pre-Verse


Verse 2:
(Guitar 1)
e:|-----------------------------------------------------------------|
B:|-----------------------------------------------------------------|
G:|-6-6-6-6-6-6-6-6-6-6-6-6-6-6-6-6---------------------------------|
D:|-6-6-6-6-6-6-6-6-6-6-6-6-6-6-6-6-7-7-7-7-7-7-7-7-7-7-7-7-7-7-7-7-|
A:|-4-4-4-4-4-4-4-4-4-4-4-4-4-4-4-4-7-7-7-7-7-7-7-7-7-7-7-7-7-7-7-7-|
E:|---------------------------------5-5-5-5-5-5-5-5-5-5-5-5-5-5-5-5-|

e:|-----------------------------------------------------------------|
B:|-----------------------------------------------------------------|
G:|-----------------------------------------------------------------|
D:|-9-9-9-9-9-9-9-9-9-9-9-9-9-9-9-9---------------------------------|
A:|-9-9-9-9-9-9-9-9-9-9-9-9-9-9-9-9-----6-----7-----9------6-----6--|
E:|-7-7-7-7-7-7-7-7-7-7-7-7-7-7-7-7-4-4---4-4---4-4----4-4---4-4----|
PM                                  * *   * *   * *    * *   * *

e:|-------------------------------------------------------------|
B:|-------------------------------------------------------------|
G:|-------------------------------------------------------------|
D:|---------6~----4--------------6~---4--------------6~---4-----|
A:|-4-4-6h7-----7---7-6--4-4-6h7----7---7-6--4-4-6h7----7---7-6-|
E:|-------------------------------------------------------------|

e:|---------------|
B:|---------------|
G:|---------------|
D:|---------------|
A:|-4-4-6h7p6/3~~-|
E:|---------------|

(Guitar 2)
e:|-----------------------------------------------------------------|
B:|-----------------------------------------------------------------|
G:|-6-6-6-6-6-6-6-6-6-6-6-6-6-6-6-6-6-6-6-6-6-6-6-6-8-8-9-9-8-8-6-6-|
D:|-x-x-x-x-x-x-x-x-x-x-x-x-x-x-x-x-x-x-x-x-x-x-x-x-x-x-x-x-x-x-x-x-|
A:|-4-4-4-4-4-4-4-4-4-4-4-4-4-4-4-4-x-x-x-x-x-x-x-x-x-x-x-x-x-x-x-x-|
E:|---------------------------------5-5-5-5-5-5-5-5-5-5-5-5-5-5-5-5-|

e:|---------------------------------------------------------|
B:|---------------------------------------------------------|
G:|-9-9-9-9-9-9-9-9-8-8-8-8-8-8-8-8-------------------------|
D:|-x-x-x-x-x-x-x-x-x-x-x-x-x-x-x-x-----4-----6-----7-----6-|
A:|-x-x-x-x-x-x-x-x-x-x-x-x-x-x-x-x-------------------------|
E:|-7-7-7-7-7-7-7-7-7-7-7-7-7-7-7-7-4-4---4-4---4-4---4-4---|
PM                                  * *   * *   * *   * *

e:|-----------------------------------------------------------------|
B:|-----------------------------------------------------------------|
G:|-6-6-6-6-6-6-6-6-6-6-6-6-6-6-6-6---------------------------------|
D:|-6-6-6-6-6-6-6-6-6-6-6-6-6-6-6-6-7-7-7-7-7-7-7-7-7-7-7-7-7-7-7-7-|
A:|-4-4-4-4-4-4-4-4-4-4-4-4-4-4-4-4-7-7-7-7-7-7-7-7-7-7-7-7-7-7-7-7-|
E:|---------------------------------5-5-5-5-5-5-5-5-5-5-5-5-5-5-5-5-|

e:|-----------------------------------------------------------------|
B:|-----------------------------------------------------------------|
G:|-----------------------------------------------------------------|
D:|-9-9-9-9-9-9-9-9-9-9-9-9-9-9-9-9-6-6-6-6-6-6-6-6-6-6-6-6-6-6-6-6-|
A:|-9-9-9-9-9-9-9-9-9-9-9-9-9-9-9-9-6-6-6-6-6-6-6-6-6-6-6-6-6-6-6-6-|
E:|-7-7-7-7-7-7-7-7-7-7-7-7-7-7-7-7-4-4-4-4-4-4-4-4-4-4-4-4-4-4-4-4-|


Interlude thing:

Gtr 1 (Clean tone)
e:|---------------------------------------------|
B:|---------------------------------------------|
G:|-6--6-6-6--6-6--4--4-4-4--4-4--4--4-4-4--4-4-|
D:|-6--6-6-6--6-6--4--4-4-4--4-4--4--4-4-4--4-4-|
A:|---------------------------------------------|
E:|---------------------------------------------|

Do a slide up with a slight bend (Doesn't matter where)

Both Guitars (Distortion)
e:|-------------------------------------------------|
B:|-------------------------------------------------|
G:|-------------------------------------------------|
D:|-6--6--6--6--6--6--6--6--7--7--7--7--7--7--x-x-6-|
A:|-6--6--6--6--6--6--6--6--7--7--7--7--7--7--x-x-6-|
E:|-4--4--4--4--4--4--4--4--5--5--5--5--5--5--x-x-4-|


Pre-Chorus (Guitar 1):
e:|-----------------------------------------------------------------|
B:|-----------------------------------------------------------------|
G:|-6-6-6-6-6-6-6-6/8-8-8-8/9-9-9-9-4-4-4-4-4-4-4-4/8-8-8-8/9-9-9-9-|
D:|-x-x-x-x-x-x-x-x-x-x-x-x-x-x-x-x-x-x-x-x-x-x-x-x-x-x-x-x-x-x-x-x-|
A:|-4-4-4-4-4-4-4-4/6-6-6-6/7-7-7-7-2-2-2-2-2-2-2-2/6-6-6-6/7-7-7-7-|
E:|-----------------------------------------------------------------|

e:|-----------------------------|
B:|-----------------------------|
G:|-----------------------------|
D:|-x-x-6~~~~~~~~-6-7-6-7-6/7/6-|
A:|-x-x-6~~~~~~~~-x-x-x-x-x-x-x-|
E:|-x-x-4~~~~~~~~-4-5-4-5-4/5/4-|


Pre-Chorus (Guitar 2):
e:|-----------------------------------------------------------------|
B:|-----------------------------------------------------------------|
G:|-6-6-6-6-6-6-6-6-6-6-6-6-6-6-6-6-4-4-4-4-4-4-4-4-4-4-4-4-4-4-4-4-|
D:|-6-6-6-6-6-6-6-6-6-6-6-6-6-6-6-6-4-4-4-4-4-4-4-4-4-4-4-4-4-4-4-4-|
A:|-4-4-4-4-4-4-4-4-4-4-4-4-4-4-4-4-2-2-2-2-2-2-2-2-2-2-2-2-2-2-2-2-|
E:|-----------------------------------------------------------------|

e:|------------------------------------------------|
B:|------------------------------------------------|
G:|---------------------------11-13-11-13-13/14/13-|
D:|-x-x-6~~~~------------------x--x--x--x--x--x--x-|
A:|-x-x-6~~~~------------------9-11--9-11-11/12/11-|
E:|-x-x-4~~~~-//Pick-Scrape\\----------------------|



Bridge (Guitar 1):
e:|----0------------0-2p0---0-----0-2p0---0-----------0--------0----|
B:|-------0---------------0-------------0----0-----0----0--2/4------|
G:|----------1--2~--------------------------------------------------|
D:|-2~----------2~--------------------------------------------------|
A:|-2~----------0~------------1~----------------2~------------------|
E:|-0~--------------------------------------------------------------|

e:|----0-2p0---0--------------------|
B:|----------0----0-----------------|
G:|---------------------------------|
D:|---------------------------------|
A:|-4~------------------------------|
E:|------------------5~-------------|

e:|-0-2p0---4p0---2p0---4p0---2p0---|
B:|-------0-----0-----0-----0-----0-|
G:|---------------------------------|
D:|---------------------------------|
A:|---------------------------------|
E:|---------------------------------|

e:|-2p0---4p0---5p0---4p0---2p0---4p0---2p0---2p0---|
B:|-----0-----0-----0-----0-----0-----0-----0-----0-|
G:|-------------------------------------------------|
D:|-------------------------------------------------|
A:|-------------------------------------------------|
E:|-------------------------------------------------|


Bridge (Guitar 2):
e:|----------------------------------------------|
B:|----------------------------------------------|
G:|-9~~~~~~~~---------------------14-13-11--13---|
D:|-x---------7~~~~~~~~-8~~~~~~~~--x--x--x---x---|
A:|-7~~~~~~~~-x---------x---------12-11--9--11---|
E:|-----------5~~~~~~~~-6~~~~~~~~----------------|

e:|---------------------------|
B:|---------------------------|
G:|-9~~~~~~~~--11--9~~~~~~~~--|
D:|-x-----------x--x----------|
A:|-7~~~~~~~~---9--7~~~~~~~~--|
E:|---------------------------|

e:|-----------------------|
B:|-----------------------|
G:|---11--9~~~~~~~~-------|
D:|----x--x---------------|
A:|----9--7~~~~~~~~-------|
E:|-----------------------|

e:|----------------------------------|
B:|----------------------------------|
G:|-11--16~-14~----------------------|
D:|-x---x---x------------------------|
A:|-9---14~-12~----------------------|
E:|--------------////Pick-Scrape\\\\-|


Outro/Chorus type thing Part 1 (Guitar 1) (x2)
e:|-----------------------------------------------------------------|
B:|-----------------------------------------------------------------|
G:|-9-9-9-8-9-9-9-9-9-9-9-9-9-9-9-9---------------------------------|
D:|-9-9-9-9-9-9-9-9-9-9-9-9-9-9-9-9-7-7-7-7-7-7-7-7-7-7-7-7-7-7-7-7-|
A:|-7-7-7-7-7-7-7-7-7-7-7-7-7-7-7-7-7-7-7-7-7-7-7-7-7-7-7-7-7-7-7-7-|
E:|---------------------------------5-5-5-5-5-5-5-5-5-5-5-5-5-5-5-5-|

e:|-----------------------------------------------------------------|
B:|-----------------------------------------------------------------|
G:|-6-6-6-6-6-6-6-6-6-6-6-6-6-6-6-6-4-4-4-4-4-4-4-4-6-6-6-6-6-6-6-6-|
D:|-6-6-6-6-6-6-6-6-6-6-6-6-6-6-6-6-4-4-4-4-4-4-4-4-4-4-4-4-4-4-4-4-|
A:|-4-4-4-4-4-4-4-4-4-4-4-4-4-4-4-4-2-2-2-2-2-2-2-2-2-2-2-2-2-2-2-2-|
E:|-----------------------------------------------------------------|

e:|-----------------------------------------------------------------|
B:|-----------------------------------------------------------------|
G:|-----------------------------------------------------------------|
D:|-2-2-2-2-2-2-2-2-2-2-2-2-2-2-2-2-7-7-7-7-7-7-7-7-7-7-7-7-7-7-7-7-|
A:|-2-2-2-2-2-2-2-2-2-2-2-2-2-2-2-2-7-7-7-7-7-7-7-7-7-7-7-7-7-7-7-7-|
E:|-0-0-0-0-0-0-0-0-0-0-0-0-0-0-0-0-5-5-5-5-5-5-5-5-5-5-5-5-5-5-5-5-|

e:|----------------------------------------------------------------------------------|
B:|----------------------------------------------------------------------------------|
G:|----------------------------------------------------------------------------------|
D:|-11-11-11-11-11-11-11-11-11-11-11-11-11-11-11-11----------------------------------|
A:|-11-11-11-11-11-11-11-11-11-11-11-11-11-11-11-11-1111111111111111-9-9-9-9-9-9-9-9-|
E:|--9--9--9--9--9--9--9--9--9--9--9--9--9--9--9--9--7-7-7-7-7-7-7-7-7-7-7-7-7-7-7-7-|


Outro/Chorus type thing Part 2 (Guitar 1)
e:|-----------------------------------------------------------------|
B:|-----------------------------------------------------------------|
G:|-9-9-9-8-9-9-9-9-9-9-9-9-9-9-9-9---------------------------------|
D:|-9-9-9-9-9-9-9-9-9-9-9-9-9-9-9-9-7-7-7-7-7-7-7-7-7-7-7-7-7-7-7-7-|
A:|-7-7-7-7-7-7-7-7-7-7-7-7-7-7-7-7-7-7-7-7-7-7-7-7-7-7-7-7-7-7-7-7-|
E:|---------------------------------5-5-5-5-5-5-5-5-5-5-5-5-5-5-5-5-|

e:|---------------------------------------------------------|
B:|---------------------------------------------------------|
G:|-6-6-6-6-6-6-6-6-6-6-6-6-6-6-6-6-4-4-4-4-4-4-4-4-6-6-6-6-|
D:|-6-6-6-6-6-6-6-6-6-6-6-6-6-6-6-6-4-4-4-4-4-4-4-4-4-4-4-4-|
A:|-4-4-4-4-4-4-4-4-4-4-4-4-4-4-4-4-2-2-2-2-2-2-2-2-2-2-2-2-|
E:|---------------------------------------------------------|
PM                                                  * * *

e:|-----------------------------------------------------------------|
B:|-----------------------------------------------------------------|
G:|-----------------------------------------------------------------|
D:|-2-2-2-2-2-2-2-2-2-2-2-2-2-2-2-2-7-7-7-7-7-7-7-7-7-7-7-7-7-7-7-7-|
A:|-2-2-2-2-2-2-2-2-2-2-2-2-2-2-2-2-7-7-7-7-7-7-7-7-7-7-7-7-7-7-7-7-|
E:|-0-0-0-0-0-0-0-0-0-0-0-0-0-0-0-0-5-5-5-5-5-5-5-5-5-5-5-5-5-5-5-5-|

e:|-----------------------------------------------------------------------------------------|
B:|-----------------------------------------------------------------------------------------|
G:|-----------------------------------------------------------------------------------------|
D:|-11-11-11-11-11-11-11-11-11-11-11-11-11-11-11-11-----------------------------------------|
A:|-11-11-11-11-11-11-11-11-11-11-11-11-11-11-11-11-11-11-11-11-11-11-11-11-9-9-9-9-9-9-9-9-|
E:|--9--9--9--9--9--9--9--9--9--9--9--9--9--9--9--9--7--7--7--7--7--7--7--7-7-7-7-7-7-7-7-7-|



Outro/Chorus type thing part 1 (Guitar 2) (x2):
e:|-------------------------------------------------------------------|
B:|-------------------------------------------------------------------|
G:|-9-9-9-9-9-9-9-9-9-9-9-9-9-9-9-9-8/9-9-9-9-9-9-9-9-9-9-9-9-9-9-9-9-|
D:|-x-x-x-x-x-x-x-x-x-x-x-x-x-x-x-x-x-x-x-x-x-x-x-x-x-x-x-x-x-x-x-x-x-|
A:|-7-7-7-7-7-7-7-7-7-7-7-7-7-7-7-7-6/7-7-7-7-7-7-7-7-7-7-7-7-7-7-7-7-|
E:|-------------------------------------------------------------------|

e:|---------------------------------------------------------------------------------|
B:|---------------------------------------------------------------------------------|
G:|-6-6-6-6-6-6-6-6/8-8-8-8/9-9-9-9/13-13-13-13-13-13-13-13/11-11-11-11-11-11-11-11-|
D:|-x-x-x-x-x-x-x-x-x-x-x-x-x-x-x-x--x-x--x--x--x--x--x--x--x--x--x--x--x--x--x--x--|
A:|-4-4-4-4-4-4-4-4/6-6-6-6/7-7-7-7/11-11-11-11-11-11-11-11/9--9--9--9--9--9--9--9--|
E:|---------------------------------------------------------------------------------|

e:|-----------------------------------------------------------------------------------------|
B:|-----------------------------------------------------------------------------------------|
G:|-9-9-9-9-9-9-9-9/11-11-11-11/13-13-13-13/14-14-14-14-14-14-14-14/16-16-16-16/14-14-14-14-|
D:|-x-x-x-x-x-x-x-x--x--x--x--x--x-x-x-x--x-x-x-x-x-x-x-x--x-x-x-x--x-x-x-x--x--x--x--x--x--|
A:|-7-7-7-7-7-7-7-7/-9--9--9--9/11-11-11-11/12-12-12-12-12-12-12-12/14-14-14-14/12-12-12-12-|
E:|-----------------------------------------------------------------------------------------|

e:|-----------------------------------------------------------------------------------------|
B:|-----------------------------------------------------------------------------------------|
G:|-13-13-13-13-13-13-13-13/14-14-14-14/13-13-13-13/11-11-11-11-11-11-11-11/8-8-8-8-8-8-8-8-|
D:|--x--x--x--x--x--x--x--x--x--x--x--x--x--x--x--x--x--x--x--x--x--x--x--x-x-x-x-x-x-x-x-x-|
A:|-11-11-11-11-11-11-11-11/12-12-12-12/11-11-11-11/-9--9--9--9--9--9--9--9/6-6-6-6-6-6-6-6-|
E:|-----------------------------------------------------------------------------------------|


Outro/Chorus type thing part 2 (Guitar 2):
e:|-------------------------------------------------------------------|
B:|-------------------------------------------------------------------|
G:|-9-9-9-9-9-9-9-9-9-9-9-9-9-9-9-9-8/9-9-9-9-9-9-9-9-9-9-9-9-9-9-9-9-|
D:|-x-x-x-x-x-x-x-x-x-x-x-x-x-x-x-x-x-x-x-x-x-x-x-x-x-x-x-x-x-x-x-x-x-|
A:|-7-7-7-7-7-7-7-7-7-7-7-7-7-7-7-7-6/7-7-7-7-7-7-7-7-7-7-7-7-7-7-7-7-|
E:|-------------------------------------------------------------------|

e:|--------------------------------------------------------------------------|
B:|--------------------------------------------------------------------------|
G:|-6-6-6-6-6-6-6-6/8-8-8-8/9-9-9-9/13-13-13-13-13-13-13-13/11--11--11--11---|
D:|-x-x-x-x-x-x-x-x-x-x-x-x-x-x-x-x--x--x-x-x-x-x-x-x--x--x--x---x---x---x---|
A:|-4-4-4-4-4-4-4-4/6-6-6-6/7-7-7-7/11-11-11-11-11-11-11-11/-9---9---9---9---|
E:|--------------------------------------------------------------------------|

e:|-----------------------------------------------------------------------------------------|
B:|-----------------------------------------------------------------------------------------|
G:|-9-9-9-9-9-9-9-9/11-11-11-11/13-13-13-13/14-14-14-14-14-14-14-14/16-16-16-16/14-14-14-14-|
D:|-x-x-x-x-x-x-x-x--x--x--x--x--x--x--x--x--x--x--x--x--x--x--x--x--x--x--x--x--x--x--x--x-|
A:|-7-7-7-7-7-7-7-7/-9--9--9--9/11-11-11-11/12-12-12-12-12-12-12-12/14-14-14-14/12-12-12-12-|
E:|-----------------------------------------------------------------------------------------|

e:|-----------------------------------------------------------------------------------------|
B:|-----------------------------------------------------------------------------------------|
G:|-13-13-13-13-13-13-13-13/14-14-14-14/13-13-13-13/11-11-11-11-11-11-11-11/8-8-8-8-8-8-8-8-|
D:|--x--x--x--x--x--x--x--x--x--x--x--x--x--x--x--x--x--x--x--x--x--x--x--x-x-x-x-x-x-x-x-x-|
A:|-11-11-11-11-11-11-11-11/12-12-12-12/11-11-11-11/-9--9--9--9--9--9--9--9/6-6-6-6-6-6-6-6-|
E:|-----------------------------------------------------------------------------------------|


Outro (Guitar 1):
e:|---------------------|-------------|
B:|---------------------|-------------|
G:|-6-x-6-6-x-6--6--6-6-|-9-x-9-9-----|
D:|-x-x-x-x-x-x--x--x-x-|-x-x-x-x-----|
A:|-4-x-4-4-x-4--4--4-4-|-7-x-7-7-----|
E:|---------------------|---------9/--|


Outro (Guitar 2):
e:|---------------------|----------------|
B:|---------------------|----------------|
G:|---------------------|-6-x-6-6--------|
D:|---------------------|-x-x-x-x--------|
A:|---------------------|-4-x-4-4--4/----|
E:|---------------------|----------------|

🏷Legend:
* palm mute
/ slide up
\ slide down
~ vibrato
h hammer on

Almost there ...

Sign in to get your own page with links to favourite songs and more. You are just one click away...

Login with Facebook Login with Google