Log in

One click and you are in

Login with Facebook Login with Google

Why sign up and log in

Guitar Tabs Explorer
My Chemical Romance bass tabs for Helena

Bass tabs

After guitar into….

 BURN IT UP………...just like a       match is try to exhilarate..     the lies               of everyone you

G-------------------------------------------------------------------------------------------------------------------------------------------------
D-------------------------------------------------------------------------------------------------------------------------------------------------
A------------------------------------------------------------------------------------------------------------------------------4-4-4-4-4-4-4-4-4--
E--9-9-9-9-9-9-9-9-9-9-9-9-9-9-9-9-7-7-7-7-7-7-7-7-7-7-7-7-7-7-7-7-5-5-5-5-5-5-5-5-5--5-5-5-5-5-5-5-5-----------------------------------

 Know and what’s the worst to know          from every heart to             know

G-----------------------------------------------------------------------------------------------------------------------------------------
D-----------------------------------------------------------------------------------------------------------------------------------------      2 Times
A------------------------------------------------------------------------------------------------------------------------------------------
E--7-7-7-7-7-7-7-7— 1Time  4-4-4-4-4 - 4-4-4--5-5-5-5-5-5-5-5--9-9-9-9-9-9-9-9-7-7-7-7-7-7-7-7---------------------

    Whats the worst thing    I can say  things are better if I stay

G---------------------------------------------------------------------------------------------------------------------------------------------------------
D---------------------------------------------------------------------------------------------------------------------------------------------------------
A---7--------------------7------------------------------------------------------------------------------------------------------------------------------7--
E---0---0-0-0-0-0-0-0---0--7-7-7-7-7-7-7-7-8-8-8-8-8-8-8-8-9-9-9-9-9-9-9-9-9-9-9-9-9-9-9-8-8-8-8-8-8-8-8-7-7-7-7-7-7-7-7-----0-

  Came the times…….                                      We are….                       The very hearts

G----------------------------------------------------------------------------------------------------------------------------------------------------------
D----------------------------------------------------------------------------------------------------------------------------------------------------------
A------------------------------------------------------------------------------------------------------------------------------4-4-4-4-4-4-4-4-4-----------
E--9-9-9-9-9-9-9-9-9-9-9-9-9-9-9-9-7-7-7-7-7-7-7-7-7-7-7-7-7-7-7-7-5-5-5-5-5-5-5-5-5--5-5-5-5-5-5-5-5-----------------------------------

 You sold

G-----------------------------------------------------------------------------------------------------------------------------------------
D-----------------------------------------------------------------------------------------------------------------------------------------      2 Times
A------------------------------------------------------------------------------------------------------------------------------------------
E--7-7-7-7-7-7-7-7— 1Time  4-4-4-4-4 - 4-4-4--5-5-5-5-5-5-5-5--9-9-9-9-9-9-9-9-7-7-7-7-7-7-7-7---------------------

 Whats the worst thing I can say…..

G--------------------------------------------------------------------------------------------------------------------------------------------------------------
D--------------------------------------------------------------------------------------------------------------------------------------------------------------
A---7--------------------7------------------------------------------------------------------------------------------------------------------------------7----
E---0---0-0-0-0-0-0-0---0--7-7-7-7-7-7-7-7-8-8-8-8-8-8-8-8-9-9-9-9-9-9-9-9-9-9-9-9-9-9-9-8-8-8-8-8-8-8-8-7-7-7-7-7-7-7-7-----0-----
           ^ 2 times ^
  Can you hear me ….. can you hear me ….
 (drum solo place…)
G----------------------------------------------------------------------------------------
D----------------------------------------------------------------------------------------
A----------------------------------------------------------------4-4-4-4-4-4-4-4-4---
E--9-9-9-9-9-9-9-9--7-7-7-7-7-7-7-7-5--5-5-5-5-5-5-5--------------------------


(Still drum solo….)
G---------------------------------------------------------------------------------------------------------
D---------------------------------------------------------------------------------------------------------    2 Times
A---------------------------------------------------------------------------------------------------------
E--4-4-4-4-4 - 4-4-4--5-5-5-5-5-5-5-5--9-9-9-9-9-9-9-9-7-7-7-7-7-7-7-7---------------------

 Whats the worst thing I can say…..
G----------------------------------------------------------------------------------------------------------------------------------------------------------
D----------------------------------------------------------------------------------------------------------------------------------------------------------
A---7--------------------7------------------------------------------------------------------------------------------------------------------------------7--
E---0---0-0-0-0-0-0-0---0--7-7-7-7-7-7-7-7-8-8-8-8-8-8-8-8-9-9-9-9-9-9-9-9-9-9-9-9-9-9-9-8-8-8-8-8-8-8-8-7-7-7-7-7-7-7-7-----0-----
    ^ 2 Times ^

Almost there ...

Sign in to get your own page with links to favourite songs and more. You are just one click away...

Login with Facebook Login with Google